Misc. Unsigned Bands - Chasity F - Eat You Alive Text Guitar Tab

Learn song with the online tabulature player
e|---------------------------------------------------------------------------|
B|--1---------------1----------1----------1--------------1--------0----------|
G|--2----------2-------2------------------2-----------2------2---------------|
D|---------------------------------------------------------------------------|
A|--0-----0--------------------3----------0------0---------------------------|
E|----------------------------------------------------------------3----------|


e|---------------------------------------------------------------------------|
B|---1--------------1----------1-------0-------------------------------------|
G|---2---------2------2------------------------------------------------------|
D|---------------------------------------------------------------------------|
A|---0-----0-------------------3---------------------------------------------|
E|--------------------------------------3------------------------------------|