Misc. Unsigned Bands - Children Of The Anachronistic Dynasty - Wait Now Cry Now Text Guitar Tab

Learn song with the online tabulature player
Band: Children of the anachronistic dynasty
 Song: Wait Now Cry Now

 tune down 1/2 step


 Verse

Eb|-------9--7--------9--7--|-------14-12-------14-12-|
Bb|----7-----------7--------|----12----------12-------|
Gb|-7-----------7-----------|-12----------12----------|
Db|-------------------------|-------------------------|
Ab|-------------------------|-------------------------|
Eb|-------------------------|-------------------------|


  Chorus

Eb|------------|------------|------------|------------|
Bb|------------|------------|------------|------------|
Gb|------------|-7----------|------------|-11---------|
Db|-4----------|-7----------|-4----------|-11---------|
Ab|-4----------|-5----------|-4----------|-9----------|
Eb|-2----------|------------|-2----------|------------|