Misc. Unsigned Bands - Chimsons - My Only One Text Guitar Tab

Learn the song with the online tablature player
MY ONLY ONE by The Chimsons

INTRO

e|-------------------------------------|
B|-------------------------------------|
G|-7-7-10-10--9-9-9-7~--5-5-10-9-7~----| 2x
D|-7-7-10-10--9-9-9-7~--5-5-10-9-7~----|
A|-5-5-8--8---7-7-7-5~--3-3-8--7-5~----|
E|-------------------------------------|

VERSE

e|-------------------------------------|
B|-------------------------------------|
G|-7-7-10-10--9-9-9-7~--5-5-10-9-7~----|
D|-7-7-10-10--9-9-9-7~--5-5-10-9-7~----|
A|-5-5-8--8---7-7-7-5~--3-3-8--7-5~----|
E|-------------------------------------|

REFRAIN

e|-------------------    --------------|
B|-------------------    --------------|
G|-7-7-7-7--5-5-5-5-- 3x -7-7-7-7--9~--|
D|-7-7-7-7--5-5-5-5--    -7-7-7-7--9~--|
A|-5-5-5-5--3-3-3-3--    -5-5-5-5--7~--|
E|-------------------    --------------|

CHORUS

e|--------------------------------------|
B|--------------------------------------|
G|-7-7-10~--7-7-12~--7-7-10~--14-12-10--|
D|-7-7-10~--7-7-12~--7-7-10~--14-12-10--|
A|-5-5-8-~--5-5-10~--5-5-8-~--12-10-8---|
E|--------------------------------------|

NITRAM
10-16-08
09:11 PM