Misc. Unsigned Bands - Chris Warren Band - Break It Down Text Guitar Tab

Learn the song with the online tablature player
E|---------------------------|
B|---------------------------|
G|---------------------------|
D|---------------------------|
A|------5---57777---5---23322|
E|12\-00--00------00--00-----| X4  PALME MUTE

E|---------------------------|
B|---------------------------|
G|---------------------------|
D|---------------------------|
A|------5---57777---5---23322|
E|12\-00--00------00--00-----| X3

E|-----------------------------------------|---------------|
B|--------------------|--------------------|---------------|
G|--------------------|--------------------|---------------|
D|--------------------|--------------------|-22--22--22--22|
A|-7p57-23---7p57-32--|-7p57-23---7p57-32--|-22--22--22--22|
E|--------230-------30|--------230-------30|-00--00--00--00|

      REPEAT EVERTHING EXCEPT THE PALM MUTE PART 3 TIMES