Misc. Unsigned Bands - Civic - Dream On Lover Text Guitar Tab

Learn the song with the online tablature player
So this is it, this is just the rythm guitar and I think it is 95% correct. I
didn't tabbed the end part because I didn't have time, i heard this song and played by
in the moment.

Tunning : eBGDAE

No struming paterns showed

Intro

|---0--0--0--0---|
|---0--0--0--0---|
|---2--2--5--0---|
|---2--2--5--3---|    <----  2x
|---0--0--3--3---|
|------------1---|

Verse

|---0--0--0--0---|
|---0--0--0--0---|
|---2--2--5--0---|
|---2--2--5--3---|    <----  4x
|---0--0--3--3---|
|------------1---|

Chorus

|---0--0--0--0---|
|---0--0--0--0---|
|---0--0--0--0---|
|---5--5--3--3---| <----  3x
|---5--5--3--3---|
|---3--3--1--1---|

Then:

|---0--0--0~-----|
|---0--0--0~-----|
|---0--0--0~-----|
|---5--5--3~-----|
|---5--5--3~-----|
|---3--3--1~-----|

Verse 2

|---0--0--0--0-----|
|---0--0--0--0-----|
|---2--2--5--0-----|
|---2--2--5--3-----|     <------ 4x
|---0--0--3--3-----|
|------------1-----|

Chorus

|---0--0--0--0---|
|---0--0--0--0---|
|---0--0--0--0---|
|---5--5--3--3---| <----  3x
|---5--5--3--3---|
|---3--3--1--1---|

Then:

|---0--0--0~-----|
|---0--0--0~-----|
|---0--0--0~-----|
|---5--5--3~-----|
|---5--5--3~-----|
|---3--3--1~-----|

I will update the final part as soon as possible ;)