Misc. Unsigned Bands - Clerks - Chubacca The Wookie Text Guitar Tab

Learn the song with the online tablature player
Intro
E|-------------------------------------------------------------------------|
B|-------------------------------------------------------------------------|
G|----3~----------4--3--4--6~----------\4----3~----------4--3--------------|
D|-------------------------------------------------------------5--4~-------|
A|-------------------------------------------------------------------------|
E|-------------------------------------------------------------------------|

Verse 1
x4)
E|---------------------------------------------------------------------------|
B|---------------------------------------------------------------------------|
G|---------------------------------------------------------------------------|
D|4--4--4--2--5--3--4--4--4--22-55-33-4--4--4--22-55-33-4--4--4--22-55-33----|
A|4--4--4--2--5--3--4--4--4--22-55-33-4--4--4--22-55-33-4--4--4--22-55-33----|
E|2--2--2--0--3--1--2--2--2--00-33-11-2--2--2--00-33-11-2--2--2--00-33-11----|
                   p.m.-----------------------------------------------------|

Verse 2
x4)
E|------------------|
B|------------------|
G|------------------|
D|4-----x--2--5--3--|
A|4-----x--2--5--3--|
E|2-----x--0--3--1--|

Outro
x4)
E|------------------|---|
B|------------------|---|
G|------------------|---|
D|x-----4--2--5--5--|-4-|
A|x-----4--2--5--5--|-4-|
E|x-----2--0--3--3--|-2-|