Misc. Unsigned Bands - Coat Of Arms - The Make Or The Break Text Guitar Tab

Learn the song with the online tablature player
Song: THE MAKE OR THE BREAK
Artist: COAT OF ARMS
Album: Inheritance (2010)

THE MAKE OR THE BREAK
Tempo = 72bpm (4/4 Time signature)
 guitar 2
Bailouni
     PM PM PM PM           PM    PM PM        PM    PM PM   PM    PM
     E  E  E  E     T  T S S   S S  S  T  T S S   S S  S  S S   S S
D||--------------|---------------------------------------------------|
A||--------------|---------------------------------------------------|
F||--------------|----------------------------------------9----------|
C||--------------|--9-10-9----10-------9-10-9----10------------10----|
G||--3--3--5--5--|---------8-----8--8---------8-----8--8----8-----8--|
C||--3--3--5--5--|---------------------------------------------------|

  PM PM    PM   PM PM PM PM   PM    PM PM
  S  S   S S  S S  S  S  S  S S   S S  S  S S
-----------------------------------------------|
-----------------------------------------------|
----------------------------9------------------|
--------10----9------------------10-------9-7h-|
--7--7-----7----7--7--7--7----7-----7--7-------|
-----------------------------------------------|

         PM    PM PM        PM    PM PM   PM    PM
  T  T S S   S S  S  T  T S S   S S  S  S S   S S
---------------------------------------------------|
---------------------------------------------------|
----------------------------------------9----------|
--9-10-9----10-------9-10-9----10------------10----|
---------8-----8--8---------8-----8--8----8-----8--|
---------------------------------------------------|

  PM PM    PM   PM PM PM PM   PM    PM PM
  S  S   S S  S S  S  S  S  S S   S S  S  S S
-----------------------------------------------|
-----------------------------------------------|
----------------------------9------------------|
--------10----9------------------10-------9-7h-|
--7--7-----7----7--7--7--7----7-----7--7-------|
-----------------------------------------------|

         PM    PM PM        PM    PM PM   PM    PM
  T  T S S   S S  S  T  T S S   S S  S  S S   S S
---------------------------------------------------|
---------------------------------------------------|
----------------------------------------9----------|
--9-10-9----10-------9-10-9----10------------10----|
---------8-----8--8---------8-----8--8----8-----8--|
---------------------------------------------------|

  PM PM    PM   PM PM PM PM   PM    PM PM
  S  S   S S  S S  S  S  S  S S   S S  S  S S
-----------------------------------------------|
-----------------------------------------------|
----------------------------9------------------|
--------10----9------------------10-------9-7h-|
--7--7-----7----7--7--7--7----7-----7--7-------|
-----------------------------------------------|

         PM    PM PM        PM    PM PM   PM    PM
  T  T S S   S S  S  T  T S S   S S  S  S S   S S
---------------------------------------------------|
---------------------------------------------------|
----------------------------------------9----------|
--9-10-9----10-------9-10-9----10------------10----|
---------8-----8--8---------8-----8--8----8-----8--|
---------------------------------------------------|

  PM PM    PM   PM PM PM PM   PM    PM PM
  S  S   S S  S S  S  S  S  S S   S S  S  S S
-----------------------------------------------|
-----------------------------------------------|
----------------------------9------------------|
--------10----9------------------10-------9-7h-|
--7--7-----7----7--7--7--7----7-----7--7-------|
-----------------------------------------------|

  S S S S S S S S S S S S S S S S
----------------------------------|
----------------------------------|
--9-9-9-9-9-9-9-9-9-9-9-9-9-9-9-9-|
----------------------------------|
--7-7-7-7-7-7-7-7-7-7-7-7-7-7-7-7-|
----------------------------------|

  S  S  S  S  S  S  E   S  S  S  S  S  S  S  S
-----------------------------------------------|
-----------------------------------------------|
--9-10-10-10-10-10-10--10-10-10-10-10-10-10-10-|
-----------------------------------------------|
--7--8--8--8--8--8--7---7--7--7--7--7--7--7--7-|
-----------------------------------------------|

   S  S  S  S  S  S E  S S S S S S S S
---------------------------------------|
---------------------------------------|
--10-10-10-10-10-10-9--9-9-9-9-9-9-9-9-|
---------------------------------------|
---8-10-10-10-10-10-7--7-7-7-7-7-7-7-7-|
---------------------------------------|

  S  S  S  S  S  S  E   S  S  S  S  S  S  S  S
-----------------------------------------------|
-----------------------------------------------|
--9-10-10-10-10-10-10--10-10-10-10-10-10-10-10-|
-----------------------------------------------|
--7--8--8--8--8--8--7---7--7--7--7--7--7--7--7-|
-----------------------------------------------|

   S  S  S  S  S  S  E   S  S  S  S  S  S  S  S
------------------------------------------------|
------------------------------------------------|
--10-10-10-10-10-10-14--14-14-14-14-14-14-14-14-|
------------------------------------------------|
---8-10-10-10-10-10-12--12-12-12-12-12-12-12-12-|
------------------------------------------------|

  S  S  S  S  S  S  E   S  S  S  S  S  S  S  S
-----------------------------------------------|
-----------------------------------------------|
--9-10-10-10-10-10-10--10-10-10-10-10-10-10-10-|
-----------------------------------------------|
--7--8--8--8--8--8--7---7--7--7--7--7--7--7--7-|
-----------------------------------------------|

   S  S  S  S  S  S E  S S S S S S S S
---------------------------------------|
---------------------------------------|
--10-10-10-10-10-10-9--9-9-9-9-9-9-9-9-|
---------------------------------------|
---8-10-10-10-10-10-7--7-7-7-7-7-7-7-7-|
---------------------------------------|

  S  S  S  S  S  S  E   S  S  S  S  S  S  S  S
-----------------------------------------------|
-----------------------------------------------|
--9-10-10-10-10-10-10--10-10-10-10-10-10-10-10-|
-----------------------------------------------|
--7--8--8--8--8--8--7---7--7--7--7--7--7--7--7-|
-----------------------------------------------|

   S  S  S  S  S  S  E   S  S  S  S  S  S  S  S
------------------------------------------------|
------------------------------------------------|
--10-10-10-10-10-10-14--14-14-14-14-14-14-14-14-|
------------------------------------------------|
---8-10-10-10-10-10-12--12-12-12-12-12-12-12-12-|
------------------------------------------------|

         PM    PM PM        PM    PM PM   PM    PM
  T  T S S   S S  S  T  T S S   S S  S  S S   S S
---------------------------------------------------|
---------------------------------------------------|
----------------------------------------9----------|
--9-10-9----10-------9-10-9----10------------10----|
---------8-----8--8---------8-----8--8----8-----8--|
---------------------------------------------------|

  PM PM    PM   PM PM PM PM   PM    PM PM
  S  S   S S  S S  S  S  S  S S   S S  S  S S
-----------------------------------------------|
-----------------------------------------------|
----------------------------9------------------|
--------10----9------------------10-------9-7h-|
--7--7-----7----7--7--7--7----7-----7--7-------|
-----------------------------------------------|

         PM    PM PM        PM    PM PM   PM    PM
  T  T S S   S S  S  T  T S S   S S  S  S S   S S
---------------------------------------------------|
---------------------------------------------------|
----------------------------------------9----------|
--9-10-9----10-------9-10-9----10------------10----|
---------8-----8--8---------8-----8--8----8-----8--|
---------------------------------------------------|

  PM PM    PM   PM PM PM PM   PM    PM PM
  S  S   S S  S S  S  S  S  S S   S S  S  S S
-----------------------------------------------|
-----------------------------------------------|
----------------------------9------------------|
--------10----9------------------10-------9-7h-|
--7--7-----7----7--7--7--7----7-----7--7-------|
-----------------------------------------------|

         PM    PM PM        PM    PM PM   PM    PM
  T  T S S   S S  S  T  T S S   S S  S  S S   S S
---------------------------------------------------|
---------------------------------------------------|
----------------------------------------9----------|
--9-10-9----10-------9-10-9----10------------10----|
---------8-----8--8---------8-----8--8----8-----8--|
---------------------------------------------------|

  PM PM    PM   PM PM PM PM   PM    PM PM
  S  S   S S  S S  S  S  S  S S   S S  S  S S
-----------------------------------------------|
-----------------------------------------------|
----------------------------9------------------|
--------10----9------------------10-------9-7h-|
--7--7-----7----7--7--7--7----7-----7--7-------|
-----------------------------------------------|

         PM    PM PM        PM    PM PM   PM    PM
  T  T S S   S S  S  T  T S S   S S  S  S S   S S
---------------------------------------------------|
---------------------------------------------------|
----------------------------------------9----------|
--9-10-9----10-------9-10-9----10------------10----|
---------8-----8--8---------8-----8--8----8-----8--|
---------------------------------------------------|

  PM PM    PM   PM PM PM PM   PM    PM PM
  S  S   S S  S S  S  S  S  S S   S S  S  S S
-----------------------------------------------|
-----------------------------------------------|
----------------------------9------------------|
--------10----9------------------10-------9-7h-|
--7--7-----7----7--7--7--7----7-----7--7-------|
-----------------------------------------------|

  S S S S S S S S S S S S S S S S
----------------------------------|
----------------------------------|
--9-9-9-9-9-9-9-9-9-9-9-9-9-9-9-9-|
----------------------------------|
--7-7-7-7-7-7-7-7-7-7-7-7-7-7-7-7-|
----------------------------------|

  S  S  S  S  S  S  E   S  S  S  S  S  S  S  S
-----------------------------------------------|
-----------------------------------------------|
--9-10-10-10-10-10-10--10-10-10-10-10-10-10-10-|
-----------------------------------------------|
--7--8--8--8--8--8--7---7--7--7--7--7--7--7--7-|
-----------------------------------------------|

   S  S  S  S  S  S E  S S S S S S S S
---------------------------------------|
---------------------------------------|
--10-10-10-10-10-10-9--9-9-9-9-9-9-9-9-|
---------------------------------------|
---8-10-10-10-10-10-7--7-7-7-7-7-7-7-7-|
---------------------------------------|

  S  S  S  S  S  S  E   S  S  S  S  S  S  S  S
-----------------------------------------------|
-----------------------------------------------|
--9-10-10-10-10-10-10--10-10-10-10-10-10-10-10-|
-----------------------------------------------|
--7--8--8--8--8--8--7---7--7--7--7--7--7--7--7-|
-----------------------------------------------|

   S  S  S  S  S  S  E   S  S  S  S  S  S  S  S
------------------------------------------------|
------------------------------------------------|
--10-10-10-10-10-10-14--14-14-14-14-14-14-14-14-|
------------------------------------------------|
---8-10-10-10-10-10-12--12-12-12-12-12-12-12-12-|
------------------------------------------------|

  S  S  S  S  S  S  E   S  S  S  S  S  S  S  S
-----------------------------------------------|
-----------------------------------------------|
--9-10-10-10-10-10-10--10-10-10-10-10-10-10-10-|
-----------------------------------------------|
--7--8--8--8--8--8--7---7--7--7--7--7--7--7--7-|
-----------------------------------------------|

   S  S  S  S  S  S E  S S S S S S S S
---------------------------------------|
---------------------------------------|
--10-10-10-10-10-10-9--9-9-9-9-9-9-9-9-|
---------------------------------------|
---8-10-10-10-10-10-7--7-7-7-7-7-7-7-7-|
---------------------------------------|

  S  S  S  S  S  S  E   S  S  S  S  S  S  S  S
-----------------------------------------------|
-----------------------------------------------|
--9-10-10-10-10-10-10--10-10-10-10-10-10-10-10-|
-----------------------------------------------|
--7--8--8--8--8--8--7---7--7--7--7--7--7--7--7-|
-----------------------------------------------|

                                                   PM   PM   PM   PM
   S  S  S  S  S  S  E   S  S  S  S  S  S  S  S    S  S S  S S  S S  S
------------------------------------------------|----------------------|
------------------------------------------------|----------------------|
--10-10-10-10-10-10-14--14-14-14-14-14-14-14-14-|----------------------|
------------------------------------------------|----------------------|
---8-10-10-10-10-10-12--12-12-12-12-12-12-12-12-|--3----3----5----5----|
------------------------------------------------|--3----3----5----5----|

  S T S T S T T T T T T T T S T T T T S S S S S
------------------------------------------------|
------------------------------------------------|
------------------------------------------------|
--------------------------------------------8---|
--0---0---0-----0-0-0-0-0-0-0-------------0-5-0-|
--0---0---0-----0-0-0-0-0-0-0-------------0---0-|

                                      PM
  S S S S S T T T T T T S T T T T S S S  E
--------------------------------------------|
--------------------------------------------|
--------------------------------------------|
--------------------------------------------|
--0---------0-0-0-0-0-0-0---------6-5-0--1--|
--0---------0-0-0-0-0-0-0---------6-5-0--1--|

  S T S T S T T T T T T T T S T T T T S S S S S
------------------------------------------------|
------------------------------------------------|
------------------------------------------------|
--------------------------------------------8---|
--0---0---0-----0-0-0-0-0-0-0-------------0-5-0-|
--0---0---0-----0-0-0-0-0-0-0-------------0---0-|

                                      PM
  S S S S S T T T T T T S T T T T S S S  E
--------------------------------------------|
--------------------------------------------|
--------------------------------------------|
--------------------------------------------|
--0---------0-0-0-0-0-0-0---------6-5-0--1--|
--0---------0-0-0-0-0-0-0---------6-5-0--1--|

  T T T T T T T T T T T T T T T T T T T T T T T T T T T T T T T T
------------------------------------------------------------------|
------------------------------------------------------------------|
--7-7-7-7-7-7-7-7-7-7-7-7-7-7-7-7-7-7-7-7-7-7-7-7-7-7-7-7-7-7-7-7-|
------------------------------------------------------------------|
--5-5-5-5-5-5-5-5-5-5-5-5-5-5-5-5-5-5-5-5-5-5-5-5-5-5-5-5-5-5-5-5-|
------------------------------------------------------------------|

  T T T T T T T T T T T T T T T T T T T T T T T T T T T T T T T T
------------------------------------------------------------------|
------------------------------------------------------------------|
--7-7-7-7-7-7-7-7-7-7-7-7-7-7-7-7-7-7-7-7-7-7-7-7-7-7-7-7-7-7-7-7-|
------------------------------------------------------------------|
--4-4-4-4-4-4-4-4-4-4-4-4-4-4-4-4-4-4-4-4-4-4-4-4-4-4-4-4-4-4-4-4-|
------------------------------------------------------------------|

  T T T T T T T T T T T T T T T T T T T T T T T T T T T T T T T T
------------------------------------------------------------------|
------------------------------------------------------------------|
--7-7-7-7-7-7-7-7-7-7-7-7-7-7-7-7-7-7-7-7-7-7-7-7-7-7-7-7-7-7-7-7-|
------------------------------------------------------------------|
--5-5-5-5-5-5-5-5-5-5-5-5-5-5-5-5-5-5-5-5-5-5-5-5-5-5-5-5-5-5-5-5-|
------------------------------------------------------------------|

  T T T T T T T T T T T T T T T T T T T T T T T T T T T T T T T T
------------------------------------------------------------------|
------------------------------------------------------------------|
--7-7-7-7-7-7-7-7-7-7-7-7-7-7-7-7-7-7-7-7-7-7-7-7-7-7-7-7-7-7-7-7-|
------------------------------------------------------------------|
--4-4-4-4-4-4-4-4-4-4-4-4-4-4-4-4-4-4-4-4-4-4-4-4-4-4-4-4-4-4-4-4-|
------------------------------------------------------------------|

  T T T T T T T T T T T T T T T T T T T T T T T T T T T T T T T T
------------------------------------------------------------------|
------------------------------------------------------------------|
--7-7-7-7-7-7-7-7-7-7-7-7-7-7-7-7-7-7-7-7-7-7-7-7-7-7-7-7-7-7-7-7-|
------------------------------------------------------------------|
--5-5-5-5-5-5-5-5-5-5-5-5-5-5-5-5-5-5-5-5-5-5-5-5-5-5-5-5-5-5-5-5-|
------------------------------------------------------------------|

  T T T T T T T T T T T T T T T T T T T T T T T T T T T T T T T T
------------------------------------------------------------------|
------------------------------------------------------------------|
--7-7-7-7-7-7-7-7-7-7-7-7-7-7-7-7-7-7-7-7-7-7-7-7-7-7-7-7-7-7-7-7-|
------------------------------------------------------------------|
--4-4-4-4-4-4-4-4-4-4-4-4-4-4-4-4-4-4-4-4-4-4-4-4-4-4-4-4-4-4-4-4-|
------------------------------------------------------------------|

  T T T T T T T T T T T T T T T T T T T T T T T T T T T T T T T T
------------------------------------------------------------------|
------------------------------------------------------------------|
--7-7-7-7-7-7-7-7-7-7-7-7-7-7-7-7-7-7-7-7-7-7-7-7-7-7-7-7-7-7-7-7-|
------------------------------------------------------------------|
--5-5-5-5-5-5-5-5-5-5-5-5-5-5-5-5-5-5-5-5-5-5-5-5-5-5-5-5-5-5-5-5-|
------------------------------------------------------------------|

  T T T T T T T T T T T T T T T T T T T T T T T T T T T T T T T T
------------------------------------------------------------------|
------------------------------------------------------------------|
--7-7-7-7-7-7-7-7-7-7-7-7-7-7-7-7-7-7-7-7-7-7-7-7-7-7-7-7-7-7-7-7-|
------------------------------------------------------------------|
--4-4-4-4-4-4-4-4-4-4-4-4-4-4-4-4-4-4-4-4-4-4-4-4-4-4-4-4-4-4-4-4-|
------------------------------------------------------------------|

  T T T T T T T T T T T T T T T T T T T T T T T T T T T T T T T T
------------------------------------------------------------------|
------------------------------------------------------------------|
--7-7-7-7-7-7-7-7-7-7-7-7-7-7-7-7-7-7-7-7-7-7-7-7-7-7-7-7-7-7-7-7-|
------------------------------------------------------------------|
--5-5-5-5-5-5-5-5-5-5-5-5-5-5-5-5-5-5-5-5-5-5-5-5-5-5-5-5-5-5-5-5-|
------------------------------------------------------------------|

  T T T T T T T T T T T T T T T T T T T T T T T T T T T T T T T T
------------------------------------------------------------------|
------------------------------------------------------------------|
--7-7-7-7-7-7-7-7-7-7-7-7-7-7-7-7-7-7-7-7-7-7-7-7-7-7-7-7-7-7-7-7-|
------------------------------------------------------------------|
--4-4-4-4-4-4-4-4-4-4-4-4-4-4-4-4-4-4-4-4-4-4-4-4-4-4-4-4-4-4-4-4-|
------------------------------------------------------------------|

  T T T T T T T T T T T T T T T T T T T T T T T T T T T T T T T T
------------------------------------------------------------------|
------------------------------------------------------------------|
--7-7-7-7-7-7-7-7-7-7-7-7-7-7-7-7-7-7-7-7-7-7-7-7-7-7-7-7-7-7-7-7-|
------------------------------------------------------------------|
--5-5-5-5-5-5-5-5-5-5-5-5-5-5-5-5-5-5-5-5-5-5-5-5-5-5-5-5-5-5-5-5-|
------------------------------------------------------------------|

  T T T T T T T T T T T T T T T T T T T T T T T T T T T T T T T T
------------------------------------------------------------------|
------------------------------------------------------------------|
--7-7-7-7-7-7-7-7-7-7-7-7-7-7-7-7-7-7-7-7-7-7-7-7-7-7-7-7-7-7-7-7-|
------------------------------------------------------------------|
--4-4-4-4-4-4-4-4-4-4-4-4-4-4-4-4-4-4-4-4-4-4-4-4-4-4-4-4-4-4-4-4-|
------------------------------------------------------------------|

  S S S S S S S S S S S S S S S S
----------------------------------|
----------------------------------|
--9-9-9-9-9-9-9-9-9-9-9-9-9-9-9-9-|
----------------------------------|
--5-5-5-5-5-5-5-5-5-5-5-5-5-5-5-5-|
----------------------------------|

  S  S  S  S  S  S  E   S  S  S  S  S  S  S  S
-----------------------------------------------|
-----------------------------------------------|
--9-10-10-10-10-10-10--10-10-10-10-10-10-10-10-|
-----------------------------------------------|
--7--8--8--8--8--8--7---7--7--7--7--7--7--7--7-|
-----------------------------------------------|

   S  S  S  S  S  S E  S S S S S S S S
---------------------------------------|
---------------------------------------|
--10-10-10-10-10-10-9--9-9-9-9-9-9-9-9-|
---------------------------------------|
---8-10-10-10-10-10-7--7-7-7-7-7-7-7-7-|
---------------------------------------|

  S  S  S  S  S  S  E   S  S  S  S  S  S  S  S
-----------------------------------------------|
-----------------------------------------------|
--9-10-10-10-10-10-10--10-10-10-10-10-10-10-10-|
-----------------------------------------------|
--7--8--8--8--8--8--7---7--7--7--7--7--7--7--7-|
-----------------------------------------------|

   S  S  S  S  S  S  E   S  S  S  S  S  S  S  S
------------------------------------------------|
------------------------------------------------|
--10-10-10-10-10-10-14--14-14-14-14-14-14-14-14-|
------------------------------------------------|
---8-10-10-10-10-10-12--12-12-12-12-12-12-12-12-|
------------------------------------------------|

  S  S  S  S  S  S  E   S  S  S  S  S  S  S  S
-----------------------------------------------|
-----------------------------------------------|
--9-10-10-10-10-10-10--10-10-10-10-10-10-10-10-|
-----------------------------------------------|
--7--8--8--8--8--8--7---7--7--7--7--7--7--7--7-|
-----------------------------------------------|

   S  S  S  S  S  S E  S S S S S S S S
---------------------------------------|
---------------------------------------|
--10-10-10-10-10-10-9--9-9-9-9-9-9-9-9-|
---------------------------------------|
---8-10-10-10-10-10-7--7-7-7-7-7-7-7-7-|
---------------------------------------|

  S  S  S  S  S  S  E   S  S  S  S  S  S  S  S
-----------------------------------------------|
-----------------------------------------------|
--9-10-10-10-10-10-10--10-10-10-10-10-10-10-10-|
-----------------------------------------------|
--7--8--8--8--8--8--7---7--7--7--7--7--7--7--7-|
-----------------------------------------------|

   S  S  S  S  S  S  E   S  S  S  S  S  S  S  S
------------------------------------------------|
------------------------------------------------|
--10-10-10-10-10-10-14--14-14-14-14-14-14-14-14-|
------------------------------------------------|
---8-10-10-10-10-10-12--12-12-12-12-12-12-12-12-|
------------------------------------------------|

  S T S T S T T T T T T T T S T T T T S S S S S
------------------------------------------------|
------------------------------------------------|
------------------------------------------------|
------------------------------------------------|
--7---7---7-----7-7-7-7-7-7-7-------------7-7-7-|
--7---7---7-----7-7-7-7-7-7-7-------------7-7-7-|

                                      PM
  S S S S S T T T T T T S T T T T S S S  E
--------------------------------------------|
--------------------------------------------|
--------------------------------------------|
--------------------------------------------|
--3---------3-3-3-3-3-3-3---------3-3-3--3--|
--3---------3-3-3-3-3-3-3---------3-3-3--3--|

  S T S T S T T T T T T T T S T T T T S S S S S
------------------------------------------------|
------------------------------------------------|
------------------------------------------------|
------------------------------------------------|
--0---0---0-----0-0-0-0-0-0-0-------------0-0-0-|
--0---0---0-----0-0-0-0-0-0-0-------------0-0-0-|

                                      PM
  S S S S S T T T T T T S T T T T S S S  E
--------------------------------------------|
--------------------------------------------|
--------------------------------------------|
--------------------------------------------|
--3---------3-3-3-3-3-3-3---------3-3-5--5--|
--3---------3-3-3-3-3-3-3---------3-3-5--5--|

  S  S  S  S  S  S  E   S  S  S  S  S  S  S  S
-----------------------------------------------|
-----------------------------------------------|
--9-10-10-10-10-10-10--10-10-10-10-10-10-10-10-|
-----------------------------------------------|
--7--8--8--8--8--8--7---7--7--7--7--7--7--7--7-|
-----------------------------------------------|

   S  S  S  S  S  S E  S S S S S S S S
---------------------------------------|
---------------------------------------|
--10-10-10-10-10-10-9--9-9-9-9-9-9-9-9-|
---------------------------------------|
---8-10-10-10-10-10-7--7-7-7-7-7-7-7-7-|
---------------------------------------|

  S  S  S  S  S  S  E   S  S  S  S  S  S  S  S
-----------------------------------------------|
-----------------------------------------------|
--9-10-10-10-10-10-10--10-10-10-10-10-10-10-10-|
-----------------------------------------------|
--7--8--8--8--8--8--7---7--7--7--7--7--7--7--7-|
-----------------------------------------------|

   S  S  S  S  S  S  E   S  S  S  S  S  S  S  S
------------------------------------------------|
------------------------------------------------|
--10-10-10-10-10-10-14--14-14-14-14-14-14-14-14-|
------------------------------------------------|
---8-10-10-10-10-10-12--12-12-12-12-12-12-12-12-|
------------------------------------------------|

  PM PM   PM   PM
  S  S  S S  S S  H        E
------------------------------||
------------------------------||
------------------9-----------||
------------------7--------L--||
--0--0--L-0--L-0--7--------L--||
--0--0--L-0--L-0--7--------L--||

Duration Legend

W - whole
H - half
Q - quarter
E - 8th
S - 16th
T - 32nd
X - 64th
. - note dotted
|-n-|  - n-tuplets

L - tied note
x - dead note
g - grace note
(n) - ghost note
> - accentuded note
NH - natural harmonic
AH - artificial harmonic
TH - tapped harmonic
SH - semi harmonic
PH - pitch harmonic
h - hammer on
p - pull off
b - bend
br - bendRelease
pb - preBend
pbr - preBendRelease
brb - bendReleaseBend
\n/ - tremolo bar dip
\n - tremolo bar dive
-/n - tremolo bar Release up
/n\ - tremolo bar inverted dip
/n - tremolo bar return
-\n - tremolo bar Release down
S - shift slide
s - legato slide
/ -  slide into from below or out of upwards
\ -  slide into from above or out of downwards
~ - vibrato
W - wide vibrato
tr - trill
TP - tremolo picking
T - tapping
S - slap
P - pop
< - fade in
^ - brush up
v - brush down