Misc. Unsigned Bands - Coco And Villa - La Noche Text Guitar Tab

Learn the song with the online tablature player
                             La Noche - Coco & Villa
                  (from the In Search of Sunrise 4 album, CD1, #6)

Track 1
      W                   E  S  E   Q     S S S Q       W
E||--------------------|-----------------------------|-------------------|
B||--------------------|-----------------------------|-------------------|
G||--------------------|-----------------------------|-------------------|
D||--------------------|-----------/7----------------|-------------------|
A||--/7----------------|--L--9-10--------10-9-5-7----|--L----------------|
E||--------------------|-----------------------------|-------------------|

  H        S S S S Q       W                   H        Q    S  S  E
------------------------|-------------------|-------------------------|
-----------8-7----------|-------------------|-----------8----7h-8p-7--|
---------------9-7-9----|--L----------------|-------------------------|
------------------------|-------------------|-------------------------|
------------------------|-------------------|-------------------------|
------------------------|-------------------|-------------------------|

  H        S S Q.        H        S S    S H.           E.
----------------------|---------------|---------------------|
--L-------------------|---------------|---------------------|
-----------9-7-9------|--L------------|---------------------|
----------------------|---------------|--7-9------------L---|
----------------------|-----------7-9-|---------------------|
----------------------|---------------|---------------------|

  H        E  S S S E.     H        E  E  E    E
------------------------|--------------------------|
------------------------|-----------7--8--8s--10~--|
------------------7-9---|--L-----------------------|
--L-----------7-9-------|--------------------------|
------------------------|--------------------------|
------------------------|--------------------------|

  E   E   H          E.   S     E  H        S S Q       W
----------------------------|------------------------|-------------------|
--8--10--13~--------12---10-|---L--8-----------------|-------------------|
----------------------------|---------------9-7-9----|--L----------------|
----------------------------|------------------------|-------------------|
----------------------------|------------------------|-------------------|
----------------------------|------------------------|-------------------|

  H        S S S S Q       W                   H        Q    S  S  E
------------------------|-------------------|-------------------------|
-----------8-7----------|-------------------|-----------8----7h-8p-7--|
---------------9-7-9----|--L----------------|-------------------------|
------------------------|-------------------|-------------------------|
------------------------|-------------------|-------------------------|
------------------------|-------------------|-------------------------|

  H        S S Q.        H        S S    S H.           E.
----------------------|---------------|---------------------|
--L-------------------|---------------|---------------------|
-----------9-7-9------|--L------------|---------------------|
----------------------|---------------|--7-9------------L---|
----------------------|-----------7-9-|---------------------|
----------------------|---------------|---------------------|

  H        E  S S S E.     H        S S S Q    S    H         Q.      E
------------------------|------------------------|-----------------------|
------------------------|------------------------|-----------------------|
------------------7-9---|--L--------9-7----------|-----------------------|
--L-----------7-9-------|---------------9-7----L-|--L--------------------|
------------------------|------------------------|-----------/9------/7--|
------------------------|------------------------|-----------------------|

  H.           E  E     E   Q    H        E     H        S S S S Q
---------------------|-----------------------|------------------------|
---------------------|-----------------------|-----------8-7----------|
---------------------|-----------------------|---------------9-7-9----|
---------------------|-----------------------|------------------------|
--L------------L--9--|--L--10----7--------L--|------------------------|
---------------------|-----------------------|------------------------|

  W                   H        S S S S Q       W
-------------------|------------------------|-------------------|
-------------------|-----------8-7----------|-------------------|
--L----------------|---------------9-7-9----|--L----------------|
-------------------|------------------------|-------------------|
-------------------|------------------------|-------------------|
-------------------|------------------------|-------------------|

  Strum
  W
--7----------------|-------------------||
--8----------------|-------------------||
--7----------------|-------------------||
--5----------------|-------------------||
--5----------------|-------------------||
--5----------------|-------------------||

Duration Legend

W - whole
H - half
Q - quarter
E - 8th
S - 16th
T - 32nd
X - 64th
. - note dotted

L - tied note
h - hammer on
p - pull off
/ -  slide into from below or out of upwards
\ -  slide into from above or out of downwards