Misc. Unsigned Bands - Cohen And The Ghost - Ghost Text Guitar Tab

Learn song with the online tabulature player
"Ghost" guitar chords TAB


Tabbed by: Cohen Hartman
E-mail: cohenandtheghost@gmail.com


Tuning: Standard
CAPO 9

Intro and verse:

e|--0---|--0---3---3---2-------0---3---------------3---2-----------------------|
B|--0---|--0---4---3---0-------1---4---------------3---0-----------------------|
G|--0---|--0---0---0---2-------0---0---------2-0---0---2-----------------------|
D|--2---|--2---1---0---1-------2---1--1h3p0--------0---1-----------------------|
A|--2---|--2---3---2---2--0-2--3---3---------------2---0-----------------------|
E|--0---|--0---x---3---x-------x---x---------------3---2-----------------------|
    Intro/   For every moon...


  Chorus:

e|--2---0---3---------------0---2---0-------------------------------------------|
B|--3---1---3---------------1---0---0-------------------------------------------|
G|--4---0---0----x2---------2---2---0----x2-------------------------------------|
D|--4---2---0---------------2---1---2-------------------------------------------|
A|--2---3---2---------------0---0---2-------------------------------------------|
E|--2---3---3---------------x---2---0-------------------------------------------|
 The distant light...       Your mother warned you...
 Just isn't right...        But now the moon is full...


Bridge:

e|---0-----3-----------------------------------------------------------------|
B|---0-----3-----------------------------------------------------------------|
G|---0--2--0--2--------------------------------------------------------------|
D|---2--0--0--0--------------------------------------------------------------|
A|---2--0--2--0--------------------------------------------------------------|
E|---0--2--3--2--------------------------------------------------------------|
  A paper moon is all you have...