Misc. Unsigned Bands - Cohen And The Ghost - Pandora Text Guitar Tab

Learn song with the online tabulature player
-------------------------------------------------------------------------------
                             Pandora - Cohen & the Ghost
-------------------------------------------------------------------------------
Tabbed by: Andre' Dantin and Cohen Hartman
Email: andredantin@Yahoo.com

Tuning: Standard (capo 5)

GUITAR 1 (Cohen)

Verse:
Em
C
G
D

Bridge:
e|--2-------0---3---2-------0--0------------2--------------------------------|
B|--1-0h1----1---1--1-0h1----1--1---4---5----0-4---5---5---------------------|
G|--2-----2---2-----2-----2---2-------0--0-------0--0---0-------X3-----------|
D|----------------------------------2--2--2----2--2--2-----------------------|
A|---------------------------------------------------------------------------|
E|---------------------------------------------------------------------------|
    Lost in forever.................god it's so tempting
    where are the children..........everyone's so old here.

e|---------------------------------------------------------------------------|
B|-0---1---3---0---1---3----0---1---3---0---1---3----------------------------|
G|--0---0---0---0---0---0----0---0---0---0---0---0--------------X2-----------|
D|---2---2-------2---2--------0---0-------0---0------------------------------|
A|-3-----------3-------------------------------------------------------------|
E|--------------------------3-----------3------------------------------------|

   Look mom I'm fine now can I come home?
   I'm still your child don't leave me alone

Bridge/Outro:
Em (I had to open it....)

Outro:
Em
C
G
D


GUITAR 2 (Andre')
Lap steel (or guitar)- standard tuning

Verse

e|-----------------------------------------------------------------------------|
B|-----------------------------------------------------------------------------|
G|----2/10--10/12\9--9/10\7--5\4---------X2------------------------------------|
D|-----------------------------------------------------------------------------|
A|-----------------------------------------------------------------------------|
E|-----------------------------------------------------------------------------|

e|-----------------------------------------------------------------------------|
B|--------------------------------5--------------------------------------------|
G|----/14\9--/14\9--14\9\7\5--5/7---5/7\5--------------------------------------|
D|-----------------------------------------------------------------------------|
A|-----------------------------------------------------------------------------|
E|-----------------------------------------------------------------------------|

e|-----------------------------------------------------------------------------|
b|-----------------------------------------------------------------------------|
G|--/14\9--/14\9--14-9-7-5-----5-5-5/7\5---------5--7--------------------------|
D|--------------------------5/7----------5-5/7\5-------------------------------|
A|-----------------------------------------------------------------------------|
E|-----------------------------------------------------------------------------|


Main riff

e|-----------------------------------------------------------------------------|
B|-----------------------------------------------------------------------------|
G|--9---7/9/10---5/7/9---5/7/9\7\5-----X2----4/5\4\2---------------------------|
D|-----------------------------------------------------------------------------|
A|-----------------------------------------------------------------------------|
E|-----------------------------------------------------------------------------|

Solo (electric guitar, distorted, standard tuning)

e|--------------------------------12-12h13h15--12h13h15--12h13h15--12h13h15--|
B|--------------------10-10h12h13--------------------------------------------|
G|---9b10b9---9h10h12--------------------------------------------------------|
D|---------------------------------------------------------------------------|
A|---------------------------------------------------------------------------|
E|---------------------------------------------------------------------------|

e|---------------------------------------------------------------------------|
B|---12h13h15--12h13h15--12h13h15--12h13h15--12-12h13~-12----12-12h13~-12----|
G|------------------------------------------------------14---------------14--|
D|---------------------------------------------------------------------------|
A|---------------------------------------------------------------------------|
E|---------------------------------------------------------------------------|

e|---------------------------------------------------------------------------|
B|---------------------------------------------------------------------------|
G|--12h14p12~------9h10p9~----7h9p7~-----5-7---------------------------------|
D|---------------------------------------------------------------------------|
A|---------------------------------------------------------------------------|
E|---------------------------------------------------------------------------|

With phase shifter set on warp speed or max. or whatever:
e|---------------------------------------------------------------------------|
B|---------------------------------------------------------------------------|
G|--999999---7-9-101010101010---5-7-999999---5-7-999777555----X2-------------|
D|---------------------------------------------------------------------------|
A|---------------------------------------------------------------------------|
E|---------------------------------------------------------------------------|

Harmony tremolo picking (distorted):
Andre'
e|-----------------------12---------12---------------------------------------|
B|--13--12-13-15---13-15------13-15----15-13---12-13-15---12-13-15-----------|
G|---------------------------------------------------------------------------|
D|---------------------------------------------------------------------------|
A|---------------------------------------------------------------------------|
E|---------------------------------------------------------------------------|

e|--12-------------------------------------------------------------------------|
B|-----15-13-15-13-12-12h13p12-------------------------------------------------|
G|----------------------------14--------5/7\5---4/5\4---2/4\2------------------|
D|-----------------------------------------------------------------------------|
A|-----------------------------------------------------------------------------|
E|-----------------------------------------------------------------------------|

Cohen:
Tremolo picking solo (distorted)

e|--12---10-12-13------------------------------------------------------------|
B|----------------10-12-13---10-12-13-12-10---9-10-12-9-10-12-13-12-10-12-10-|
G|---------------------------------------------------------------------------|
D|---------------------------------------------------------------------------|
A|---------------------------------------------------------------------------|
E|---------------------------------------------------------------------------|

e|---------------------------------------------------------------------------|
B|-9---9h10h9----------------------------------------------------------------|
G|------------9~-------------------------------------------------------------|
D|---------------------------------------------------------------------------|
A|---------------------------------------------------------------------------|
E|---------------------------------------------------------------------------|

| /  slide up
| \  slide down
| h  hammer-on
| p  pull-off
| ~  vibrato
| +  harmonic
| x  Mute note
===============================================================================