Misc. Unsigned Bands - Constellation Of Emery - Hailstorm Text Guitar Tab

Learn the song with the online tablature player
Hailstorm
By: Constellation of Emery

|--------------------------------------------------------------|
|---------------------------------------------8----------------|
|------7-9-10---------7-9-10---------7-9-10-----10-9--10-9-----|
|-7-7---------7--8-8---------8--9-9------------------------11--|
|--------------------------------------------------------------|
|--------------------------------------------------------------|

|--------------------------------------------------------------|
|---------------------------------------------8----------------|
|------7-9-10---------7-9-10---------7-9-10-----10-9--10-9-----|
|-7-7---------7--8-8---------8--9-9------------------------11--|
|--------------------------------------------------------------|
|--------------------------------------------------------------|

then:
|--------------------------------------------------------------|
|--------------------------------------------------------------|
|--------------------------------------------------------------|
|-7-7----------------------------------------------------------|
|-5-5------------8-8------------9-9------------10-10--11-------|
|----------------6-6------------7-7-------------8--8---9-------|

|--------------------------------------------------------------|
|--------------------------------------------------------------|
|--------------------------------------------------------------|
|-7-7----------------------------------------------------------|
|-5-5------------8-8------------9-9------------10-10--11-------|
|----------------6-6------------7-7-------------8--8---9-------|

|----------12~----15-14~-----19b~~---17-15-14-15~--|
|-/12--15------------------------------------------|
|sl------------------------------------------------|
|--------------------------------------------------|
|--------------------------------------------------|
|--------------------------------------------------|

|----------12~----15-14~-----19b~~---17-15-14-15~--|
|-/12--15------------------------------------------|
|sl------------------------------------------------|
|--------------------------------------------------|
|--------------------------------------------------|
|--------------------------------------------------|

then:
|--------------------------------------------------------------|
|---------------------------------------------8----------------|
|------7-9-10---------7-9-10---------7-9-10-----10-9--10-9-----|
|-7-7---------7--8-8---------8--9-9------------------------11--|
|--------------------------------------------------------------|
|--------------------------------------------------------------|

|--------------------------------------------------------------|
|---------------------------------------------8----------------|
|------7-9-10---------7-9-10---------7-9-10-----10-9--10-9-----|
|-7-7---------7--8-8---------8--9-9------------------------11--|
|--------------------------------------------------------------|
|--------------------------------------------------------------|