Misc. Unsigned Bands - Copper - By Now Text Guitar Tab

Learn the song with the online tablature player
                             By Now - Copper

This is a badass band from Knoxville Tennessee

Intro & Verse
D#|---------------------------------------------------------------------------|
A#|---------------------------------------------------------------------------|
F#|---------------------------------------------------------------------------|
C#|---3---3---3---5---5---5---8---8---8---0---0---0---0---0---0---0-----------|
G#|---3---3---3---5---5---5---8---8---8---0---0---0---0---0---0---0-----------|
C#|---3---3---3---5---5---5---8---8---8---0---0---0---0---0---0---0-----------|

Pre-chorus
D#|---5--5--5--5--5--5--5--5--5--5--5--5--5--5--5--5--|
A#|---6--6--6--6--6--6--6--6--6--6--6--6--6--6--6--6--|
F#|---5--5--5--5--5--5--5--5--5--5--5--5--5--5--5--5--|
C#|---------------------------------------------------|
G#|---------------------------------------------------|
C#|---------------------------------------------------|

D#|---3--3--3--3--3--3--3--3--3--3--3--3--3--3--3--3--|
A#|---5--5--5--5--5--5--5--5--5--5--5--5--5--5--5--5--|
F#|---5--5--5--5--5--5--5--5--5--5--5--5--5--5--5--5--|
C#|---------------------------------------------------|
G#|---------------------------------------------------|
C#|---------------------------------------------------|

D#|---1--1--1--1--1--1--1--1--1--1--1--1--1--1--1--1--|
A#|---1--1--1--1--1--1--1--1--1--1--1--1--1--1--1--1--|
F#|---2--2--2--2--2--2--2--2--2--2--2--2--2--2--2--2--|
C#|---------------------------------------------------|
G#|---------------------------------------------------|
C#|---------------------------------------------------|

D#|--------------------------------------------------|
A#|---5--5--5--5--5--5--5--5--5--5--5--5--5--5--5--5-|
F#|---5--5--5--5--5--5--5--5--5--5--5--5--5--5--5--5-|
C#|---5--5--5--5--5--5--5--5--5--5--5--5--5--5--5--5-|
G#|--------------------------------------------------|
C#|--------------------------------------------------|

(palm mute) (listen to song for correct # of times)
D#|---------------------------------------------------------------------------|
A#|---------------------------------------------------------------------------|
F#|---------------------------------------------------------------------------|
C#|---------------------------------------------------------------------------|
G#|---------------------------------------------------------------------------|
C#|--0--0--0--0--0--0--0--0--0--0--0--0--0--0--0--0--0--0--0--0--0--0--0------|

“In you..”
D#|---------------------------------------------------------------------------|
A#|---------------------------------------------------------------------------|
F#|---------------------------------------------------------------------------|
C#|-----------3/5--5--5---3/5--5--5----3/5------------------------------------|
G#|-----------3/5--5--5---3/5--5--5----3/5------------------------------------|
C#|-----------3/5--5--5---3/5--5--5----3/5------------------------------------|

(listen for correct number of times for last chord, and for rests between)

“by now..”
D#|---------------------------------------------------|
A#|---------------------------------------------------|
F#|---------------------------------------------------|
C#|---0--0--0--0---3--3--3--3---8--8--8--8------------| x2 \
G#|---0--0--0--0---3--3--3--3---8--8--8--8------------|     \
C#|---0--0--0--0---3--3--3--3---8--8--8--8------------|      \
                                                                                          \
3rd time same chords,
but there are different rests between chords                            Chorus

D#|---------------------------------------------------|       /
A#|---------------------------------------------------|      /
F#|---------------------------------------------------| /
C#|---0--0--0--0---3--3--3--3---8--8--8--8------------|    /
G#|---0--0--0--0---3--3--3--3---8--8--8--8------------|
C#|---0--0--0--0---3--3--3--3---8--8--8--8------------|

Verse 2
D#|---------------------------------------------------------------------------|
A#|---------------------------------------------------------------------------|
F#|---------------------------------------------------------------------------|
C#|---3---3---3---5---5---5---8---8---8---0---0---0---0---0---0---0-----------|
G#|---3---3---3---5---5---5---8---8---8---0---0---0---0---0---0---0-----------|
C#|---3---3---3---5---5---5---8---8---8---0---0---0---0---0---0---0-----------|

Pre-chorus
D#|---5--5--5--5--5--5--5--5--5--5--5--5--5--5--5--5--|
A#|---6--6--6--6--6--6--6--6--6--6--6--6--6--6--6--6--|
F#|---5--5--5--5--5--5--5--5--5--5--5--5--5--5--5--5--|
C#|---------------------------------------------------|
G#|---------------------------------------------------|
C#|---------------------------------------------------|

D#|---3--3--3--3--3--3--3--3--3--3--3--3--3--3--3--3--|
A#|---5--5--5--5--5--5--5--5--5--5--5--5--5--5--5--5--|
F#|---5--5--5--5--5--5--5--5--5--5--5--5--5--5--5--5--|
C#|---------------------------------------------------|
G#|---------------------------------------------------|
C#|---------------------------------------------------|

D#|---1--1--1--1--1--1--1--1--1--1--1--1--1--1--1--1--|
A#|---1--1--1--1--1--1--1--1--1--1--1--1--1--1--1--1--|
F#|---2--2--2--2--2--2--2--2--2--2--2--2--2--2--2--2--|
C#|---------------------------------------------------|
G#|---------------------------------------------------|
C#|---------------------------------------------------|

D#|--------------------------------------------------|
A#|---5--5--5--5--5--5--5--5--5--5--5--5--5--5--5--5-|
F#|---5--5--5--5--5--5--5--5--5--5--5--5--5--5--5--5-|
C#|---5--5--5--5--5--5--5--5--5--5--5--5--5--5--5--5-|
G#|--------------------------------------------------|
C#|--------------------------------------------------|

(palm mute) (listen to song for correct # of times)
D#|---------------------------------------------------------------------------|
A#|---------------------------------------------------------------------------|
F#|---------------------------------------------------------------------------|
C#|---------------------------------------------------------------------------|
G#|---------------------------------------------------------------------------|
C#|--0--0--0--0--0--0--0--0--0--0--0--0--0--0--0--0--0--0--0--0--0--0--0------|

“by now..”
D#|---------------------------------------------------|
A#|---------------------------------------------------|
F#|---------------------------------------------------|
C#|---0--0--0--0---3--3--3--3---8--8--8--8------------| x2 \
G#|---0--0--0--0---3--3--3--3---8--8--8--8------------|     \
C#|---0--0--0--0---3--3--3--3---8--8--8--8------------|      \
                                                                                          \
3rd time same chords,
but there are different rests between chords                            Chorus

D#|---------------------------------------------------|       /
A#|---------------------------------------------------|      /
F#|---------------------------------------------------| /
C#|---0--0--0--0---3--3--3--3---8--8--8--8------------|    /
G#|---0--0--0--0---3--3--3--3---8--8--8--8------------|
C#|---0--0--0--0---3--3--3--3---8--8--8--8------------|

outro
D#|------------------------------------------------|
A#|------------------------------------------------|
F#|------------------------------------------------|
C#|--12--12--12--8--8--8--10--10--10---5--5--5--5--| x3
G#|--12--12--12--8--8--8--10--10--10---5--5--5--5--|
C#|--12--12--12--8--8--8--10--10--10---5--5--5--5--|

Last time same chords, w/rests between each chord