Misc. Unsigned Bands - Coventry Square-the Sea King Text Guitar Tab

Learn the song with the online tablature player
                             The Sea King - Coventry Square

THIS IS AN OFFICIAL COVENTRY SQUARE TAB FROM ONE OF THE COVENTRY SQUARE GUITARISTS.

d#|------------------------------|---------------------------------------------|
A#|------------------------------|---------------------------------------------|
F#|------------------------------|---------------------------------------------|
C#|------------------------------|-------------------------------------x2------|
G#|------------------------------|---------------------------------------------|
C#|0000-4-000-8-0-7-0-5-0-0h5h7--|0000-4-000-1-0-1-0-1-0-0h1h3-----------------|

|-------------------------------|----------------------------------|-----------|
|-------------------------------|----------------------------------|-----------|
|-------------------------------|----------------------------------|-----------|
|-------------------------------|-------------------------------x2-|0----------|
|0000-4-000-8-0-7-0-5-0-0h5h7---|0000-4-000-1-0-1-0-1-0-0h1h3------|0----------|
|0000-4-000-8-0-7-0-5-0-0h5h7---|0000-4-000-1-0-1-0-1-0-0h1h3------|0----------|

|-------------------------------|----------------------------------------------|
|-------------------------------|----------------------------------------------|
|-------------------------------|----------------------------------------------|
|-------------------------------|----------------------------------------------|
|0000-4-000-8-0-7-0-5-0-0h5h7---|0000-4-000-1-0-1-0-1-0-0h1h3------------------|
|0000-4-000-8-0-7-0-5-0-0h5h7---|0000-4-000-1-0-1-0-1-0-0h1h3------------------|

|-------------------------------|-----------------------------------------------|
|------0-0----------------------|------0-0--------------------------------------|
|------3-3-hold for 11 counts---|------3-3---hold for 9 counts------------------|
|-------------------------------|-----------------------------------------------|
|4h0----------------------------|4h0--------------------------------------------|
|4h0----------------------------|4h0--------------------------------------------|

|-------------------------------|-----------------------------------------------|
|------0-0----------------------|------0-0--------------------------------------|
|------3-3-hold for 10 counts---|------3-3---hold for 8 counts------------------|
|-------------------------------|-----------------------------------------------|
|4h0----------------------------|4h0--------------------------------------------|
|4h0----------------------------|4h0--------------------------------------------|

|-------------------------------|-----------------------------------------------|
|-------------------------------|-----------------------------------------------|
|-------------------------------|-----------------------------------------------|
|-------------------------------|----------------------DRUMS--------------------|
|-------------------------------|-----------------------------------------------|
|000-000000000000----0--000-----|000-000000000----------------------------------|

|-------------------------------|-----------------------------------------------|
|-------------------------------|----------------------LEFT GUITAR--------------|
|-------------------------------|-----------------------------------------------|
|-------------------------------|----------------------------14h15p14-----------|
|-----------------------------5*|----------------------12-13----------13\-------|
|000-000000000000----0--000-----|000-000000000---12-13--------------------------|

|-------------------------------|-----------------------------------------------|
|-------------------------------|-----------------------------------------------|
|-------------------------------|-----------------------------------------------|
|------------------BASS SLIDE---|-----------------------------------------------|
|-------------------------------|-----------------------------------------------|
|000-000000000-----(1/12\1)-----|000-000000000000----0--000---------------------|

|-------------------------------|-----------------------------13h17p13----------|
|-------------------------------|--------------------------15----------15-------|
|-------------------------------|-----------------------14----------------14\---|
|-------------------------------|--------------------15-----RIGHT---------------|
|-------------------------------|-----------------17--------GUITAR--------------|
|000-000000000000----0--000-----|000-000000000-12-------------------------------|

|-------------------------------|--------0~-------------------------------------|
|-------------------------------|--------0~-------------------------------------|
|-------------------------------|--------0~-------------------------------------|
|-------------------------------|0~--0~-----------------------------------------|
|---------------0---------------|0~--0~-----------------------------------------|
|000-000000000000---------------|0~--0~-----------------------------------------|

cHORUS LEAD
|-------------------------------|------------------------------------------|-----|
|-------------x2----------------|------------------------------------------|-----|
|-------------------------------|12-x16--15-x8--17-x8--14-x16--11-x8-14-x8-|15~--|
|5-5-5-5-5-5-5-5-4-4-4-4-4-4-4-4|------------------------------------------|-----|
|5-5-5-5-5-5-5-5-4-4-4-4-4-4-4-4|------------------------------------------|-----|
|5-5-5-5-5-5-5-5-4-4-4-4-4-4-4-4|-------PLAY-FAST-LEAD-4-TIMES-------------|-----|

cHORUS RYTHME
|----------------------------------------------------------------|---------------|
|-------------------------------X3-------------------------------|---------------|
|----------------------------------------------------------------|---------------|
|5-5-5-5-5-5-5-5-4-4-4-4-4-4-4-4-5-5-5-5-5-5-5-5-4-4-4-4-4-4-4-4-|5~-------------|
|5-5-5-5-5-5-5-5-4-4-4-4-4-4-4-4-5-5-5-5-5-5-5-5-4-4-4-4-4-4-4-4-|5~-------------|
|5-5-5-5-5-5-5-5-4-4-4-4-4-4-4-4-5-5-5-5-5-5-5-5-4-4-4-4-4-4-4-4-|5~-------------|

(RIGHT GUITAR FADES IN FIRST, LEFT GUITAR COMES IN AFTER 1 MEASURE)
|------2--------------2--------------0--------------0-------|2~------------------|
|--3-----3---3----3-----3---3----2-----2---2----2-----2---2-|3~------------------|
|4---4-----4----4---4-----4----4---4-----4----4---4-----4---|4~------------------|
|-----------------------------------------------------------|--------------------|
|---RIGHT-GUITAR-4-TIMES------------------------------------|--------------------|
|-----------------------------------------------------------|--------------------|

|------5--------------5--------------4--------------4-------|5~------------------|
|--7-----7---7----7-----7---7----5-----5---5----5-----5---5-|7~------------------|
|7---7-----7----7---7-----7----6---6-----6----6---6-----6---|7~------------------|
|-----------------------------------------------------------|--------------------|
|---LEFT-GUITAR-3-TIMES-------------------------------------|--------------------|
|-----------------------------------------------------------|--------------------|

EXALT THIS WATER FROM MY...

LUNGS!!!
|--------------------------------------------------------------------------------|
|-------------0-0-0-0-0-0--------------------------------------------------------|
|-------------3-3-3-3-3-3--------------------------------------------------------|
|------------------------------X8------------------------------------------------|
|0---0---0-----------------------------------------------------------------------|
|1---1---1-----------------------------------------------------------------------|
 PALM MUTE

| /   slide up
| \   slide down
| h   hammer-on
| p   pull-off
| ~   vibrato
| +   harmonic
| x   Mute note
| b   Bend
| pb  Pre-bend
| br  Bend release
| pbr Pre-bend release
| brb Bend release bend