Misc. Unsigned Bands - Crackdown - Faces Of The Life Text Guitar Tab

Learn song with the online tabulature player
Band :Crackdown 
Song :Faces of the Life 
Album:Life

Standardtuning


Intro

Guitar2 (Guitar1)                               (E)
e|-----------------------------------------------------------------|
B|-----22---------22---------22---------22---------22--------------|
G|---21--21-----21--21-----21--21-----21--21-----21--21------------|
D|-20---------20---------20---------20---------20------------------|
A|-----------------------------------------------------------------|
E|-----------------------------------------------------------------|

              (G)                   (F)
e|-----------------------------------------------------------------|
B|-----22---------22---------22---------22---------22--------------|
G|---21--21-----21--21-----21--21-----21--21-----21--21------------|
D|-20---------20---------20---------20---------20------------------|
A|-----------------------------------------------------------------|
E|-----------------------------------------------------------------|

   (E)                   (E)                   (G)
e|-----------------------------------------------------------------|
B|-----22---------22---------22---------22---------22--------------|
G|---21--21-----21--21-----21--21-----21--21-----21--21------------| 
D|-20---------20---------20---------20---------20------------------| 
A|-----------------------------------------------------------------| 
E|-----------------------------------------------------------------|

              (F)                    (E)
e|-----------------------------------------------------------------|
B|-----22---------22---------22~-----------------------------------|  
G|---21--21-----21--21-----21---21~--------------------------------|   
D|-20---------20---------20----------------------------------------|  
A|------------------------------------2~---------------------------|  
E|------------------------------------0~---------------------------|
 

Solo1 (Guitar2)
VERY FAST

e|-----------------------------------------------------------------|
B|-----------------------------------------------------------------|
G|-----------------------------------------------------------------|
D|-7-0-7-0-7-0-7-0-8-0-8-0-10-0-10-0-7-0-7-0-7-0-7-0-5-0-5-0-8-0-8-|
A|-----------------------------------------------------------------|
E|-----------------------------------------------------------------|


Verse (Guitar1&Guitar2)

e|-----------------------------------------------------------------|
B|-----------------------------------------------------------------| 
G|-----------------------------------------------------------------| 
D|-99999999-10101010-12121212-99999999-7777-10101010---------------|
A|-77777777-8-8-8-8--10101010-77777777-5555-8-8-8-8----------------|
E|-----------------------------------------------------------------|


Bridge1 (Guitar1&Guitar2)

e|-----------------------------------------------------------------|
B|-----------------------------------------------------------------|
G|-----------------------------------------------------------------|
D|-----9-------9-------9-------------------------------------------| 
A|-2---7---2---7---2---7--5-4-2------------------------------------|
E|-0-------0-------0------3-2-0------------------------------------|
                          . . .

Chorus (Guitar1&Guitar2)                       Bridge2

e|-----------------------------------------------------------------|
B|---------------------------------------ON------------------------|
G|---------------------------------------THE-----------------------| 
D|-----------------------------------4-5-END-----------------------|  
A|-22-2-22--22-2-22--22-2-22--22-2-222-3-----2-2-2-2--4-5----------| 
E|-00-0-00--00-0-00--00-0-00--00-0-00--------0-0-0-0--2-3----------|


Pre-Chorus(Guitar1 normal playing and Guitar2 faster)

e|-----------------------------------------------------------------|
B|-----------------------------------------------------------------|  
G|-----------------------------------------------------------------|   
D|-------------------------------------------------------------4-5-|  
A|-22-2-22-22-2-2-2--22-2-22-22-2-2-2--22-2-22-22-2-22--22-2-222-3-|  
E|-00-0-00-00-0-0-0--00-0-00-00-0-0-0--00-0-00-00-0-00--00-0-00----|
 

Solo2 (Guitar2 and Guitar1 under the Solo the Chorus)

e|-----------------------------------------------------------------|
B|---5-6-5658656---5-6-5658656---5-6-5658656---5-6-131110----------|
G|-33-3------------------------33-3----------------------12109-----|
D|---------------00-0------------------------00-0-------------1210-|
A|-----------------------------------------------------------------|
E|-----------------------------------------------------------------|


e|-----------------------------------------------------------------|
B|-----------------------------------------------------------------| 
G|---------------------------------------------------12109---------|  
D|---9-10-91091210910---9-10-91091210910---------9-10-----12109----|
A|-88-8---------------00-0---------------...--88--8------------1210|
E|-----------------------------------------------------------------|


Outro (Guitar1&Guitar2)

e|-----------------------------------------------------------------|
B|-----------------------------------------------------------------|
G|-----------------------------------------------------------------|
D|---------------------45----------------------45------------------| 
A|-2-2-2-2-45--2-2-2-2-23--2-2-2-2-45--2-2-2-2-23-2----------------|
E|-0-0-0-0-23--0-0-0-0-----0-0-0-0-23--0-0-0-0----0----------------|


Intro
Solo1
Verse 1(4x)
Bridge
Chorus(2x)
Bridge2
Verse 2(4x)
Bridge
Chorus(2x)
Bridge2
Solo
Chorus(2x)
Pre-Chorus(2x)
Outro



Verse 1

I see children crying,
on the streets,
they are poor,
hungry and homeless,
they are ill,
helpless and weak,
that´s the truth,
that´s the real world.


Verse 2

In the world we live in,
the life is better,
we have flats,
foods and water,
we have clothes,
schools and medicines,
that´s the truth,
that´s our hallow world.


Chorus

Faces of the Life!

Faces of the Life!

I see!
Faces of the Life!

Faces of the Life!

I see!!!!!!!!





It´s the first song of my Band and it´s a great song.
I hope you like it.
Please rate!

(tabbed by Lala16)
E-Mail: ka14ba@yahoo.de