Misc. Unsigned Bands - Crackers - Thats Not Mine Text Guitar Tab

Learn the song with the online tablature player
I'm finally sending this in

band - Crackers
song - Thats not mine

play 8x
--------------------|
---2------2-------2-|
-0----2-0-----2-0---|
----0-------0-------|
--------------------|
--------------------|
play 6x
---------------------------------|
---------------------------------|
---------------------------------|
-------0-------0-------0-------0-|
-2---2---2---2---2---2---2---2---|
---0-------0-------0-------0-----|
play 8x
--------------------|
---2------2-------2-|
-0----2-0-----2-0---|
----0-------0-------|
--------------------|
--------------------|
play 6x
---------------------------------|
---------------------------------|
---------------------------------|
-------0-------0-------0-------0-|
-2---2---2---2---2---2---2---2---|
---0-------0-------0-------0-----|
play 8x
--------------------|
---2------2-------2-|
-0----2-0-----2-0---|
----0-------0-------|
--------------------|
--------------------|
play 6x
---------------------------------|
---------------------------------|
---------------------------------|
-------0-------0-------0-------0-|
-2---2---2---2---2---2---2---2---|
---0-------0-------0-------0-----|
play 8x
--------------------|
---2------2-------2-|
-0----2-0-----2-0---|
----0-------0-------|
--------------------|
--------------------|
play 6x
---------------------------------|
---------------------------------|
---------------------------------|
-------0-------0-------0-------0-|
-2---2---2---2---2---2---2---2---|
---0-------0-------0-------0-----|
play 2x
-------------------------|
-------0-------0-------0-|
-----0-------0-------0---|
---2-------2-------2-----|
-0-------0-------0-------|
-------------------------|
this a super cool song yah...song