Misc. Unsigned Bands - Craig Bailey - Kylies Lullaby Text Guitar Tab

Learn song with the online tabulature player
Intro
E|--3-----3-----3-----3-----3-----3-----2-----2--|
B|-----3-----3-----3-----3-----3-----3-----3-----|
G|-----------------------------------------------|
D|--------------------------------------0-----0--|
A|--------------3-----3-----2-----2--------------|
E|--3-----3--------------------------------------|
- - - - - - - - - - - - - - - - - - - - - - - - - -
E|--3-----3-----3-----3-----3-----3-----2-----2--|
B|-----3-----3-----3-----3-----3-----3-----3-----|
G|-----------------------------------------------|
D|-----------------------------------------------|
A|--------------3-----3-----2-----2-----0-----0--|
E|--3-----3--------------------------------------|
- - - - - - - - - - - - - - - - - - - - - - - - - -
then just repeat 4 times. also, when you get to the ending of one of the lines. when you 
from 2 to 3 on the high E, hammer it. and it will make it sound a little better.