Misc. Unsigned Bands - Crashcurse - Oceans Are Graveyards Text Guitar Tab

Learn the song with the online tablature player
|------------------------------------------------------------------------|
|------------------------------------------------------------------------|
|------------------------------------------------------------------------|
|-----------------7-----------------8------------------------------------|
|-8p5---------8p5---8-5---------8p5---8-5----------8p5----5-----5-----5--|
|-----000-000------------0-000-------------0-000---------5---5-3---3-2---|

|--------------------------------|-----------------------------------|
|--------------------------------|-----------------------------------|
|--------------------------------|-----------------------------------|
|--------------------------------|-----------------------------------|
|-8----8----10---7---7---5---5---|-12----12----10---8---8---7---7----|
|---00---00----0---0---0---0---0-|----88----88----8---8---8---8---8--|

|--------------------------------|----------------------------------|
|--------------------------------|----------------------------------|
|--------------------------------|----------------------------------|
|--------------------------------|----------------------------------|
|-8----8----10---7---7---5---5---|-10----10----8---7---7---5---5----|
|---00---00----0---0---0---0---0-|----88----88---8---8---8---8---8--|