Misc. Unsigned Bands - Craving Lucy - Therapy Text Guitar Tab

Learn the song with the online tablature player
Intro

e |-----------|--------------------|
b |-----------|--------------------|
g |-----------|--------------------|
d |-4-22-5-44-|-4-22-5-44----------|
a |-4-22-5-44-|-4-22-5-44----------|
e |-2-00-3-22-|-2-00-3-22----------| Second measure comes in with drums.
PM ..........   In the first measure leave out the last two chords on the fourth time.

Verse
e |-----------|
b |-----------|
g |-----------|
d |-4-22-5-44-|
a |-4-22-5-44-|
e |-2-00-3-22-|

Pre-Chorus
e |----------|-------------|
b |----------|-------------|
g |----------|-------------|
d |-7-9-10---|-7-9-10------|
a |--------7-|--------7~/--|
e |----------|-------------|

Chorus
e |-----------|
b |-----------|
g |-----------|
d |-4-22-5-44-|
a |-4-22-5-44-|
e |-2-00-3-22-|
Break
e |-----------------------|
b |-----------------------|
g |-----------------------|
d |-2222-2222-2222-223-223|
a |-2222-2222-2222-223-223|
e |-0000-0000-0000-001-001|
Pm  .... .... .... ..  ..

Outro
e |-----------|-------|  ~ is vibrato
b |-----------|-5~~~/-|  / is slide down.
g |-----------|-------|
d |-4-22-5-44-|-------|
a |-4-22-5-44-|-------|
e |-2-00-3-22-|-------|