Misc. Unsigned Bands - Crazy Life - Trevorbrown07 Text Guitar Tab

Learn song with the online tabulature player
----------------------------------------------------------------------------
                             crazy life - trevorbrown07
----------------------------------------------------------------------------
Tabbed by:trevorbrown07
Email:drpepsi93@yahoo.com

Tuning:drop c

|--------------------------------------------------------| 2x
|--------------------------------------------------------|
|--------------------------------------------------------|
|--------------------------------------------------------|
|-------8-7-10-------8-7----------8-7-10-8-7-------------|
|-0-0-0--------0-0-0-----10-0-0-0------------10-8-7-5----|
-_-_-_-_-_-_-_-_-_-_-_-_-_-_-_-_-_-_-_-_-_-_-_-_-_-_-_-_-
|--------------------------------------------------------| 2x
|--------------------------------------------------------|
|--------------------------------------------------------|
|--------------------------------------------------------|
|-------6-5-------3-5-------6-5-0-----3------------------|
|-0-0-0-----0-0-0-----0-0-0-------3-5---5-3-5------------|

http://www.youtube.com/trevorbrown07
************************************