Misc. Unsigned Bands - Cross Flag - Role Model Text Guitar Tab

Learn the song with the online tablature player
Role Model

                        Verse
E||-------------------------------------------------------|
B||-------------------------------------------------------|
G||-------------------------------------------------------|  x4
D||-------------------------------------------------------|
A||-7777777777777777-5555555555555555---------------------|
E||-5555555555555555-3333333333333333---------------------|

Chorus
keepin us here, keepin us strong,keepin us here strong here strong ya)
E||-------------------------------------------------------|
B||-------------------------------------------------------|
G||-------------------------------------------------------|   x3
D||---5----7----5-7-5-------------------------------------|
A||-7-3--7-5--7-3-5-3-------------------------------------|
E||-5----5----5-------------------------------------------|

                   Verse
E||-------------------------------------------------------|
B||-------------------------------------------------------|
G||-------------------------------------------------------|  x4
D||-------------------------------------------------------|
A||-7777777777777777-5555555555555555---------------------|
E||-5555555555555555-3333333333333333---------------------|

                       Chorus
E||-------------------------------------------------------|
B||-------------------------------------------------------|
G||-------------------------------------------------------|   x3
D||---5----7----5-7-5-------------------------------------|
A||-7-3--7-5--7-3-5-3-------------------------------------|
E||-5----5----5-------------------------------------------|

Verse
Chorus
Verse
Chorus

Verse
DEVO'S SOLO)