Misc. Unsigned Bands - Crumpet Mode - Sexy Terrorist Text Guitar Tab

Learn the song with the online tablature player
Guitar 1: Intro/Verse
Repeat x 20
-------------------------------------------------------|
-------------------------------------------------------|
-------------------------------------------------------|
-------------------------------------------------------|
 ----------------7----0--------------------------------|
----7---9----------------------------------------------|

Guitar2: Verse
Repeat each note x 5 do this 6 times

--------------------------------------------------------|
--------------------------------------------------------|
-10-----8---------6-------------------------------------|
-12-----10---5----8-------------------------------------|
-12-----10---7----8-------------------------------------|
-------------7------------------------------------------|

Guitar 1 and 2: Chorus
Repeat each note x 2
---------------------------------------------|
---------------------------------------------|
-7----------9-------7---------5------7-------|
-9----------11----- 9---------7------9-------|
-9----------11----- 9---------7------9-------|
---------------------------------------------|

Intro
Verse
Chorus
Verse
Chorus