Misc. Unsigned Bands - Crypt - Toilet Of Death Text Guitar Tab

Learn the song with the online tablature player
This is the tab for an original song by me, link if in the buttom if you havent heard it.

Artist: CrypT
Song: Toilet of Death
Album: CrypT

Legend:
pm = Palm mute
. = tremolo pick
* = pinch harmonic
h = hammer-on
p = pull-off
/ = slide
~ = sustain note

Riff 1
C#|---------------------------------------------|
G#|---------------------------------------------|
E |---------------------------------------------|
B |---------------------------------------------|
F#|---------------------------------------------|
B |-0-0-1-0-0-4-0-0-1-0-0-5-0-0-1-0-0-8-5-8-5-4-|
   pm--    pm  pm--    pm  pm--    pm . . . . .

Riff 2
C#|---------------------------------------------|
G#|---------------------------------------------|
E |---------------------------------------------|
B |-0-0-1-0-0-1-0-0-1-0-0-4-0-0-1-0-0-5---------|
F#|-0-0-1-0-0-1-0-0-1-0-0-4-0-0-1-0-0-5---------|
B |-0-0-1-0-0-1-0-0-1-0-0-4-0-0-1-0-0-5-5-8-5-4-|
   pm--    pm   pm--    pm  pm-    pm   . . . .

Riff 3
C#|------------------------------|
G#|------------------------------|
E |------------------------------|
B |-5h8p5h86h9p6h9p5h8p5h8-------|
F#|------------------------------|
B |-----------------------0-3-1-0|

second time around you end on this:
C#|---------|
G#|---------|
E |---------|
B |---------|
F#|---------|
B |-3-1-0-1-|

Riff 4
This part goes in 5/4 instead of 4/4 like the rest of the song
C#|-----------|
G#|-----------|
E |-----------|
B |-----------|
F#|-----------|
B |-0-1-4-5-4-|

Riff 5
C#|---------------------------------|
G#|---------------------------------|
E |---------------------------------|
B |---------------------------------|
F#|---------------------------------|
B |-0-0-0-1-0-0-0-1-0-0-0-1-0-0-0-1-|
    . . . . . . . . . . . . . . . .

Riff 6
NOTE: this is all tremolo picked
C#|-------------|         C#|-------------|
G#|-------------|         G#|-------------|
E |-------------|         E |-------------|
B |-------------| x4 then B |-------------|
F#|-5-8-7-3-1-0-|         F#|5-8-7-3-1-0--|
B |-------------|         B |-----------1-|
    . . . . . .              . . . . . . .

Riff 7
C#|-----------------|
G#|-----------------|
E |-----------------|
B |---4-1-----------|
F#|-------5-4-5-----|
B |-1-----------5-4-|
   ..................

Riff 8
C#|------------------------------------|
G#|------------------------------------|
E |------------------------------------|
B |------------------------------------|
F#|------------------------------5-4-1-|
B |-0-1/5-4-1-0-5-4-8-01/5-4-1-0-------|

Part 2
C#|--------------------------------------|
G#|-----------------------------12-12-12-|
E |-----------------------------15-15-15-|
B |--------------------------------------|
F#|-0-1/5-4-1-0-5-4-8-0-1/5-4-1----------|
B |-0-1/5-4-1-0-5-4-8-0-1/5-4-1----------|
                                ........
Riff 9
C#|-------------|
G#|-11-12-14-15-|
E |-14-15-17-18-|
B |-------------|
F#|-------------|
B |-------------|
   .............

Riff 10
C#|------------------|
G#|------------------|
E |------------------|
B |-///////////0~~~~-|
F#|-///////////0~~~~-|
B |-///////////0~~~~-|

Part 2
C#|---------------|
G#|---------------|
E |---------------|
B |-0~~-1~~-4~~---|
F#|-0~~-1~~-4~~-5-|
B |-0~~-1~~-4~~---|
                *
Riff 11
C#|-----------------|
G#|-----------------|
E |-----------------|
B |-0~~~~~~~~~~~~~~-|
F#|-0~~~~~~~~~~~~~~-|
B |-0~~~~~~~~~~~~~~-|