Misc. Unsigned Bands - Cunninlynguists - The Light Text Guitar Tab

Learn the song with the online tablature player
Not to complicated but beautifull.He uses the Wah-Pedal a lot, especially
during the loop, just listen to the song to get it. I can't get the whole last
solo, just that end riff, so play around with the scales he uses and improv.

Intro
|-0------------9b10-------------------------------------------------|
|---0----------------\10--8-----------------------------------------|
|----------------------------9-7--7-9~~~~-------9-12-9-----12----9~~|
|-----------------------------------9---------/9h12--------12-----12----|
|-----------------------------------------------------------------------|
|-----------------------------------------------------------------------|

|----------------10-12--7h10--/12-10------------------------------------|
|-------------12---------------------12-10------b12--10-----------------|
|--------9-12------------------------------12~~---------12-9~~----------|
|-8/9-12----------------------------------------------------------------|
|-----------------------------------------------------------------------|
|-----------------------------------------------------------------------|

Loop
|------7-------------|
|-8-10---10-8--------|
|-------------9-7-9--|
|--------------------|
|--------------------|
|--------------------|

Chorus
|-b12-10~~--------------b12-10~~------------------------|
|-----------\12-10-12~~---------\12-10------------------|
|--------------------------------------12-9-------------|
|-------------------------------------------------------|
|-------------------------------------------------------|
|-------------------------------------------------------|

|-b12-10~~--------------b12-10~~- 10-12--15--12~-------------|
|-----------\12-10-12~~--------------------------12p10-------|
|-----------------------------------------------------12-9~~-|
|------------------------------------------------------------|
|------------------------------------------------------------|
|------------------------------------------------------------|

End

|-17b19r17-15------|
|-------------17---|
|------------------|
|------------------|
|------------------|
|------------------|

 <>- harmonics
 / - Slide up
 \ - Slide down
 b - Bend
 r - release bend
 ~ - Vibrato
 h - hammer-on