Misc. Unsigned Bands - Dananananaykroyd - Black Wax Text Guitar Tab

Learn song with the online tabulature player
-------------------------------------------------------------------------------
                                        BLACK WAX (INTRO) - Dananananaykroyd 
-------------------------------------------------------------------------------
Tabbed by: Frederick Jakeman

www.myspace.com/dananananaykroyd
http://www.popmorphic.com/ - Videos - Dananananaykroyd - Black Wax

Tuning: E A D G A e

e|------------------------------------------------------------|
A|-0--0--0-0-0------------------7--7-7-7--2--2--12-12-12--12--|
G|-6--6--6-6-6--6--6--6-6-6--6--7--7-7-7--2--2--11-11-11--11--|
D|-7--7--7-7-7--7--9--9-9-9--7------------------0--0--0---0---|
A|-0--0--0-0-0--9--7--7-7-7-----------------------------------|
E|---------------------------9--7--7-7-7--2--2--10-10-10--10--|

e|------------------------------------------------------------|
A|-0--0--0-0-0------------------7--7-7-7--2--2----------------|
G|-6--6--6-6-6--6--6--6-6-6--6--7--7-7-7--2--2--1- 1- 1---1---|
D|-7--7--7-7-7--7--9--9-9-9--7------------------2--2--2---2---|
A|-0--0--0-0-0--9--7--7-7-7---------------------0--0--0---0---|
E|---------------------------9--7--7-7-7--2--2----------------|