Misc. Unsigned Bands - Danielle Cantazariti - Sometimes Text Guitar Tab

Learn song with the online tabulature player
------------------------------------------------------------------------------
                      SOMETIMES Danielle Cantazariti 
                     (Hey Hey It's Esther Blueburger)
-------------------------------------------------------------------------------
Tabbed by: April R
Email: dancin_freak10@hotmail.com


e|----------------------------------------------------------------------------|
B|--------------1--------------------------1------------------------1---------|
G|--------2---------2-----2----------2---------2-----2---------0-------0----0-|
D|-----2-----2---------2----------2-----2---------2---------2-----2-------2---|
A|--0-------------------------------------------------------------------------|
E|----------------------------1-------------------------3---------------------|

e|---------------------------------------------------------------------------|
B|----------------0----------------------------------------------------------|
G|---------0-----------0------0----------------------------------------------|
D|-----2------2------------2-------------------------------------------------|
A|---------------------------------------------------------------------------|
E|--0------------------------------------------------------------------------|



| /  slide up
| \  slide down
| h  hammer-on
| p  pull-off
| ~  vibrato
| +  harmonic
| x  Mute note
===============================================================================