Misc. Unsigned Bands - Danielle Fricke - Next To Me Text Guitar Tab

Learn the song with the online tablature player
Danielle Fricke- Next to me

This is played throughout the song.
E)-----------------------------------------------------------------|
B)-----------------------------------------------------------------|
D)-----0-------0-------0-------0-------2-------2-------------------|
G)---2---2---2---2---2---2---2---2---2---2---2---2-----0-------0---|
A)-3-------3-------2-------2-------0-------0---------2---2---2---2-|
E)-------------------------------------------------3-------3-------|

E)----------------------------------------------------------------------------------------------|
B)----------------------------------------------------------------------------------------------|
D)----------------------------------------------------------------------------------------------|
G)-16----16--/20----20--/16----16--/11--/13--/16/14-/16--16--/20----/16----/13--/11--/16/14/16--|
A)----------------------------------------------------------------------------------------------|
E)----------------------------------------------------------------------------------------------|