Misc. Unsigned Bands - Darius Heath - Rain Text Guitar Tab

Learn song with the online tabulature player
Artist - Darius Heath
Song - Rain
Album - Garbage
Genre - Grunge

*A guitar effects pedal is recommended to play this song*

Played Clean With Delay (30-50 Milliseconds)
Introduction [X3]:
e-------------------------------------|
B-------------------------------------|
G-------------------------------------|
D-----------------------------------5-|
A---5-5-5-5-5-5-5-5-5-5-5-5-5-5-5-5---|
E--6-6-6-6-6-6-6-6-2-2-2-2-2-2-2-2-2--|

Played With Fuzz/Distortion
Verse One [X8]:
e------------------------------------|
B------------------------------------|
G------------------------------------|
D------------------------------------|
A--5-5-5-5-5-5-5-5-3-3-3-3-3-3-3-3-3-|
E--6-6-6-6-6-6-6-6-5-5-5-5-5-5-5-5-5-|

Played Clean With Delay (30-50 Milliseconds)
Chorus [X5]:
e------------------------------------|
B------------------------------------|
G------------------------------------|
D--55555555555555553333333322332233--|
A--55555555555555553333333322332233--|
E--66666666666666665555555544554455--|

Played With Fuzz/Distortion
Verse Two [X8]:
e------------------------------------|
B------------------------------------|
G------------------------------------|
D----------------5-----------------3-|
A--5-5-5-5-5-5-5-5-3-3-3-3-3-3-3-3-3-|
E--6-6-6-6-6-6-6-6-5-5-5-5-5-5-5-5-5-|

Played Clean With Delay (30-50 Milliseconds)
Chorus [X5]:
e------------------------------------|
B------------------------------------|
G------------------------------------|
D--55555555555555553333333322332233--|
A--55555555555555553333333322332233--|
E--66666666666666665555555544554455--|

Played Clean With Chorus or Delay (30-50 Milliseconds)
Outro [X4]:
e------------------------------------|
B------------------------------------|
G------------------------------------|
D----5--5--5--5--5--5--5--5--5----3~\|
A---5--5--5--5--5--5--5--5--5---3~~~\|
E--6--6--6--6--6--6--6--6--6--5~~~~~\|