Misc. Unsigned Bands - Dark Age - Dare To Collapse Text Guitar Tab

Learn the song with the online tablature player
Band: Dark Age
                     Album: Dark Age
                     Song: Dare to Collapse

h - Hammer on
p - Pull off
/ - slide up
\ - slide down
. - Palm mute
~ - Vibrato
ph- Pinch harmonic

Not a single Dark Age tab. Proud of being the first one :) (no reference, 100% ear)

Intro

Guitar I
|-----------------------------------------------------------3---------------|
|---4-------------4---------------3--4-------------4---------------3--------|
|-----5---5---5-------5---3---5--------5---5---5-------5-------3------X5----|
|-------3---3---3---3---3---3---3--------3---3---3---3---3---3---3----------|
|---------------------------------------------------------------------------|
|---------------------------------------------------------------------------|

Guitar II
|---------------------------------------------------------------------------|
|---------------------------------------------------------------------------|
|---------------------------------------------------------------------------|
|---3-3-3-3-3-3-3-3-3-3-3-3-3-3-3-3-3-3-3-3-3-3-3-3-3-3-3-3-3-3-3-3---------|
|---3-3-3-3-3-3-3-3-3-3-3-3-3-3-3-3-3-3-3-3-3-3-3-3-3-3-3-3-3-3-3-3---------|
|---3-3-3-3-3-3-3-3-3-3-3-3-3-3-3-3-3-3-3-3-3-3-3-3-3-3-3-3-3-3-3-3---------|
                                                                              X2
|---------------------------------------------------------------------------|
|---------------------------------------------------------------------------|
|---------------------------------------------------------------------------|
|---5-5-5-5-5-5-5-5-5-5-5-5-5-5-5-5-1-1-1-1-1-1-1-1-3-3-3-3-3-3-3-3---------|
|---3-3-3-3-3-3-3-3-3-3-3-3-3-3-3-3-1-1-1-1-1-1-1-1-1-1-1-1-1-1-1-1---------|
|-----------------------------------1-1-1-1-1-1-1-1-------------------------|

Verse I

|---3---------------3---------------3---------------1-------T---------------|
|---4---------------3---------------4---------------1--------W--------------|
|---5---------------5---------------3---------------x---------I-------------|
|---------------------------------------------------3----------C------------|
|---------------------------------------------------------------E-----------|
|---------------------------------------------------------------------------|

|---------------------------------------------------------------------------|
|---------------------------------------------------------------------------|
|---------12----------12----------12----------12----------12----------12----|
|---------------------------------------------------------------------------|
|---------------------------------------------------------------------------|
|---10-10----10101010----10-10-10----10101010----10-10-10----10101010-------|
     .  .     . . . .     .  .  .     . . . .     .  .  .     . . . .

|---------------------------------------------------------------------------|
|---------------------------------------------------------------------------|
|-----------12----------12----------12----------12----------12----------12--|
|---------------------------------------------------------------------------|
|---------------------------------------------------------------------------|
|--10-10-10----10101010----10-10-10----10101010----10-10-10----10101010-----|
    .  .  .     . . . .     .  .  .     . . . .     .  .  .     . . . .

|---------------------------------------------------------------------------|
|---------------------------------------------------------------------------|
|---------------------------------------------------------------------------|
|---8-8-8-8-8-8-8-8-8-8-8-8-8-8-8-8-----------------------------------------|
|---8-8-8-8-8-8-8-8-8-8-8-8-8-8-8-8-----------------------------------------|
|---8-8-8-8-8-8-8-8-8-8-8-8-8-8-8-8-----------------------------------------|
    . . . . . . . .

Pre-Chorus I

|---------------------------------------------------------------------------|
|---------------------------------------------------------------------------|
|---------------------------------------------------------------------------|
|---------------------------------------------------------------------------|
|--------6---5-----6-----6--5-6-5-----5-6-8-6------6--5-6-5-----------------|
|----6-6---6---6-8----6-----------6-------------6---------------------------|

Chorus I
same as intro for both guitars)

Verse II

|---3---------------3---------------3---------------1-----------------------|
|---4---------------3---------------4---------------1-----------------------|
|---5---------------5---------------3---------------x-----------------------|
|---------------------------------------------------3-----------------------|
|---------------------------------------------------------------------------|
|---------------------------------------------------------------------------|

|---------------------------------------------------------------------------|
|---------------------------------------------------------------------------|
|---------12----------12----------12----------12----------12----------12----|
|---------------------------------------------------------------------------|
|---------------------------------------------------------------------------|
|---10-10----10101010----10-10-10----10101010----10-10-10----10101010-------|
     .  .     . . . .     .  .  .     . . . .     .  .  .     . . . .

|---------------------------------------------------------------------------|
|---------------------------------------------------------------------------|
|-----------12----------12----------12----------12----------12----------12--|
|---------------------------------------------------------------------------|
|---------------------------------------------------------------------------|
|--10-10-10----10101010----10-10-10----10101010----10-10-10----10101010-----|
    .  .  .     . . . .     .  .  .     . . . .     .  .  .     . . . .

|---------------------------------------------------------------------------|
|---------------------------------------------------------------------------|
|------------12----------12-------12-----12-12----12------------------------|
|---------------------------------------------------------------------------|
|---------------------------------------------------------------------------|
|---10-10-10----10101010----10-10----10--------10---------------------------|
     .  .  .     . . . .     .  .     .         .

|---------------------------------------------------------------------------|
|---------------------------------------------------------------------------|
|---------12----------12----------12----------12----------12----------12----|
|---------------------------------------------------------------------------|
|---------------------------------------------------------------------------|
|---10-10----10101010----10-10-10----10101010----10-10-10----10101010-------|
     .  .     . . . .     .  .  .     . . . .     .  .  .     . . . .

|---------------------------------------------------------------------------|
|---------------------------------------------------------------------------|
|-----------12----------12----------12----------12----------12----------12--|
|---------------------------------------------------------------------------|
|---------------------------------------------------------------------------|
|--10-10-10----10101010----10-10-10----10101010----10-10-10----10101010-----|
    .  .  .     . . . .     .  .  .     . . . .     .  .  .     . . . .

|---------------------------------------------------------------------------|
|---------------------------------------------------------------------------|
|---------------------------------------------------------------------------|
|---8-8-8-8-8-8-8-8-8-8-8-8-8-8-8-8-----------------------------------------|
|---8-8-8-8-8-8-8-8-8-8-8-8-8-8-8-8-----------------------------------------|
|---8-8-8-8-8-8-8-8-8-8-8-8-8-8-8-8-----------------------------------------|
    . . . . . . . .

Pre-Chorus II
same as previous one)

Chorus II

Solo... (Guitar II plays a couple of pre-chorus riffs and then some chorus riffs)

Breakdown

|---------------------------------------------------------------------------|
|---------------------------------------------------------------------------|
|---------------------------------------------------------------------------|
|---------------------------------------------------------------------------|
|------------------------------------------1---0-----1-----1--0-1-0---------|
|--000-0-0-0-0-0-0-0-0-0-0-0-0-0-------1-1---1---1-3----1-------------------|
   ...   . . .   . . .   . . .
  [             x3              ]

|---------------------------------------------------------------------------|
|---------------------------------------------------------------------------|
|---------12----------12----------12----------12----------12----------12----|
|---------------------------------------------------------------------------|
|---------------------------------------------------------------------------|
|---10-10----10101010----10-10-10----10101010----10-10-10----10101010-------|
     .  .     . . . .     .  .  .     . . . .     .  .  .     . . . .

|---------------------------------------------------------------------------|
|---------------------------------------------------------------------------|
|---------12----12-12----12-------12----------12----------12----------12----|
|---------------------------------------------------------------------------|
|---------------------------------------------------------------------------|
|---10-10----10-------10----10-10----10101010----10-10-10----10101010-------|
     .  .     .        .     .  .     . . . .     .  .  .     . . . .

|---------------------------------------------------------------------------|
|---------------------------------------------------------------------------|
|---------------------------------------------------------------------------|
|---8-8-8-8-8-8-8-8-8-8-8-8-8-8-8-8----------PRE-CHORUS--III----------------|
|---8-8-8-8-8-8-8-8-8-8-8-8-8-8-8-8-----------------------------------------|
|---8-8-8-8-8-8-8-8-8-8-8-8-8-8-8-8-----------------------------------------|
    . . . . . . . .

Chorus III

Outro

Guitar I
|-------------------------------------|
|-------------------------------------|
|----/8-------------------------------|
|----------------------------3-3-3-3--|
|----------------------------3-3-3-3--|
|----------------------------3-3-3-3--|

Guitar II
|-------------------------------------|
|-------------------------------------|
|----PRE-CHORUS--RIFF-----------------|
|----------------------------3-3-3-3--|
|----------------------------3-3-3-3--|
|----------------------------3-3-3-3--|

More or less, enjoy.