Misc. Unsigned Bands - Dartmouth Mars - Debauchery Daves Text Guitar Tab

Learn the song with the online tablature player
verse one
guitar one
---------------------------------------------------------------|
---------------------------------------------------------------|
-------------------------7-910---------------------------------|
-------------------------6-89----------------------------------|
-------------------------5-78----------------------------------|
--8888888888887777777666------000000---------------------------|

verse one
guitar two
---------------------------------------------------------------|
---------------------------------------------------------------|
---------------------------------------------------------------|
-----------------------------765-------------------------------|
---------------------------------------------------------------|
--8888888888887777777666---------------------------------------|

verse two
both guitar
---------------------------------------------------------------|
---------------------------------------------------------------|
--7-910--------------------------------------------------------|
--6-89---------------------------------------------------------|
--5-78--00-x4--------------------------------------------------|
--------00-----------------------------------------------------|

verse three
guitar one
---------------------------------------------------------------|
---------------------------------------------------------------|
---------------------------------------------------------------|
---------------------------------------------------------------|
---------------------------------------------------------------|
0000000000000000000000000000000000000000000000000000000000-----|

verse three
guitar two
----------------------------------------------------------------|
----------------------------------------------------------------|
-7---9-910------10979797----------------------------------------|
-6---8-89--------9868686----------------------------------------|
-5---7-78--x4----8757575----------------------------------------|
----------------------------------------------------------------|

blasbeats-both guitar
---------------------------------------------------------------|
---------------------------------------------------------------|
-98787876------------------------------------------------------|
-87676765------------------------------------------------------|
-76565654------------------------------------------------------|
---------------------------------------------------------------|

breakdown
guitar one/two
---------------------------------------------------------------|
---------------------------------------------------------------|
-7777----------------------------------------------------------|
-6666----------------------------------------------------------|
-5555-0--------------------------------------------------------|
------0--------------------------------------------------------|

bridge/blastbeat finish-both guitar
---------------------------------------------------------------|
---------------------------------------------------------------|
-7777777788888----------------9--------------------------------|
-6666666677777----------------8--------------------------------|
-5555555566666----7657656-----7--------------------------------|
---------------------------------------------------------------|