Misc. Unsigned Bands - Datus Tribe - Lakambini Bottom Text Guitar Tab

Learn the song with the online tablature player
Intro
G-D-C 4x

I.
e|---3--3------------|
B|---3--2--1---------|
G|---0--3------------|
D|---0--0--2---(4x)--|
A|---2-----3---------|
E|---3---------------|

II.
e|---x--x--x---------|
B|---x--x--x---------|
G|---x--x--x---------|
D|---x--7--5---(4x)--|
A|---5--5--3---------|
E|---3--x--x---------|

verse I
G D E C

e|---x----x----x----x---------|
B|---x----x----x----x---------|
G|---x----x----x----x---------|
D|---x----7----9----5---(2x)--|
A|---5----5----7----3---------|
E|---3----x----x----x---------|

Pagbaba palang ng comb ay tinitigan ko na
Tibok ng puso ko niyayanig ng lakad nya
46 ang waist
58 ang bra
350 pounds na gumigiling sa kalsada

after verse: play intro II (2x)

verse II
G D E C

e|---x----x----x----x---------|
B|---x----x----x----x---------|
G|---x----x----x----x---------|
D|---x----7----9----5---(2x)--|
A|---5----5----7----3---------|
E|---3----x----x----x---------|

Tuwing sya’y ngumingiti
hirap ang facial muscles nya
Kahit di ko nakikita
love na love ko ang chick bones nya
Tuwing sya’y nagdadabog
lumilindol sa Barangay
Kapag syay tumatawa
bilbil nya’y kumakaway

Chorus
G D C
e|---x--x--x---------|
B|---x--x--x---------|
G|---x--x--x---------|
D|---x--7--5---(4x)--|
A|---5--5--3---------|
E|---3--x--x---------|
Binibining Sexy

refrain
E-D-C(hold) 2x then C#m
e|---x----x----x----------x--------|
B|---x----x----x----------x--------|
G|---x----x----x----------x--------|
D|---9----7----5--(hold)--6--------|
A|---7----5----3----------4--------|
E|---x----x----x----------x--------|

Eh ano nyayon kung mataba sya
Mas masarap daw magmahal ng babaeng lumba-lumba
Eh ano ngayon kung mabigat sya
Imbes na tawaging
Baboy,Porkchop,
Titson Baka,Dabyana,
Sisters Moron For there’s more to
love(more to love!)alright!

Chorus
G D C
e|---x--x--x---------|
B|---x--x--x---------|
G|---x--x--x---------|
D|---x--7--5---(4x)--|
A|---5--5--3---------|
E|---3--x--x---------|

Binibining Sexy (type kita)
Binibining Sexy (kahit matabang,matabang,mataba ka)
Binibining Sexy (love kita)
Binibining Sexy

Instrumentals
play intro II

refrain
E-D-C(hold) 2x then C#m
e|---x----x----x----------x--------|
B|---x----x----x----------x--------|
G|---x----x----x----------x--------|
D|---9----7----5--(hold)--6--------|
A|---7----5----3----------4--------|
E|---x----x----x----------x--------|

Legs nya’y mala troso ang dating
Pamatay ng dalag
Pwedeng paddle sa Hazing
Salawal nya’y pwedeng trapal pag may libing
Ano man ang sabihin
Friends ko sa friends theres
Sa iskwela sa bahay pati na sa barangay
Wala na bang karapatang ma in-love ang ubod ng taba ahh

Chorus
G D C
e|---x--x--x---------|
B|---x--x--x---------|
G|---x--x--x---------|
D|---x--7--5---(8x)--|
A|---5--5--3---------|
E|---3--x--x---------|

Alright Binibining Sexy (You maybe fat)
Binibining Sexy (Why I love you like that?)
Binibining Sexy (Some say you look like a pig)
Binibining Sexy (I love my woman really big)
Binibining Sexy
(Ano bang problema kung mataba,mataba,mataba(then fade) Binibining Sexy,Binibining
Sexy,Binibining Sexy(then fade))