Misc. Unsigned Bands - Ddlj - Tuhe Dekha To Ye Jana Sanam Text Guitar Tab

Learn song with the online tabulature player
song:Tujhe dekha to ye jana sanam frm DDLJ
This is my first ever chords by myself feel free to comment on it......
do  point out the mistakes...sunil
u can contact me at cutepirate18@gmail.com

e-000----7-5-7--3-5---10--7--|
b----------------------------|
g----------------------------|
d----------------------------|
a----------------------------|
e----------------------------|


e-000----7-5-7--3-5---3-2----|
b----------------------------|
g----------------------------|
d----------------------------|
a----------------------------|
e----------------------------|


e--0-2---0-2---0-3-2---------|
b------3-----3---------------|
g----------------------------|
d----------------------------|
a----------------------------|
e----------------------------|


e--0-2---0-2---3-2-0---------|
b------3-----3---------------|
g----------------------------|
d----------------------------|
a----------------------------|
e----------------------------|