Misc. Unsigned Bands - Dear Faye - 1 Year Today Text Guitar Tab

Learn song with the online tabulature player
Song: 1 Year Today
Album: N/A
Artist: Dear Faye
Tuning: Half-Step Down

Played acoustic with one guitar.

Moderate Pace: 80bpm


Key:
   - ^ = Accented strum
   - X = Dead note

Verse 1

e|-------------------------|
B|-------------------------|
G|-----4-----4-----4-----4-| 2x 
D|---2-----2-----2-----2---| 
A|-3-----3-----3-----3-----|
E|-------------------------|

e|-------------------------|
B|-------------------------|
G|-----2-----2-----2-----2-| 2x
D|---0-----0-----0-----0---|
A|-3-----3-----3-----3-----|
E|-------------------------|

e|-------------------------|
B|-------------------------|
G|-----0-----0-----0-----0-| 2x
D|---2-----2-----2-----2---|
A|-0-----0-----0-----0-----|
E|-------------------------|

e|-------------------------|
B|-------------------------|
G|-----2-----2-----2-----2-| 2x
D|---0-----0-----0-----0---|
A|-2-----2-----2-----2-----|
E|-------------------------|

e|-------------------------|
B|-------------------------|
G|-----0-----0-----0-----0-| 2x
D|---2-----2-----2-----2---|
A|-0-----0-----0-----0-----|
E|-------------------------|

Chorus

e|-0--0-0-0-0-|
B|-3--3-3-3-3-|
G|-0--0-0-0-0-|  x2
D|-2--2-2-2-2-|
A|-3--3-3-3-3-|
E|-0--0-0-0-0-|
   ^
e|-X--X-X-X-X-|
B|-3--3-3-3-3-|
G|-2--2-2-2-2-|  x2
D|-0--0-0-0-0-|
A|-3--3-3-3-3-|
E|-0--0-0-0-0-|
   ^
e|-0--0-0-0-0-|
B|-3--3-3-3-3-|
G|-0--0-0-0-0-|  x2
D|-2--2-2-2-2-|
A|-0--0-0-0-0-|
E|-0--0-0-0-0-|
   ^
e|-X--X-X-X-X-|
B|-3--3-3-3-3-|
G|-2--2-2-2-2-|  x2
D|-0--0-0-0-0-|
A|-2--2-2-2-2-|
E|-0--0-0-0-0-|
   ^
e|-0--0-0-0-0-|
B|-3--3-3-3-3-|
G|-0--0-0-0-0-|  x2
D|-2--2-2-2-2-|
A|-0--0-0-0-0-|
E|-0--0-0-0-0-|
   ^
e|-3----------|
B|-3----------|
G|-0----------|
D|-2----------|
A|-3----------|
E|-X----------|

e|-3----------|
B|-3----------|
G|-0----------|
D|-0----------|
A|-2----------|
E|-3----------|

e|-0----------|
B|-3----------|
G|-0----------|
D|-2----------|
A|-0----------|
E|-0----------|
   
Verse 2

Guitar 1
e|-------------------------|
B|-------------------------|
G|-----7-----7-----7-----7-| 2x
D|---5-----5-----5-----5---|
A|-5-----5-----5-----5-----|
E|-------------------------|
                               
e|-------------------------|
B|-------------------------|
G|-----7-----7-----7-----7-| 2x
D|---4-----4-----4-----4---|
A|-5-----5-----5-----5-----|
E|-------------------------|
       
e|-------------------------|
B|-------------------------|
G|-----6-----6-----6-----6-| 2x
D|---4-----4-----4-----4---|
A|-5-----5-----5-----5-----|
E|-------------------------|
      
e|-------------------------|
B|-------------------------|
G|-----4-----4-----4-----4-| 2x
D|---2-----2-----2-----2---|
A|-3-----3-----3-----3-----|
E|-------------------------|
      
e|-------------------------|
B|-------------------------|
G|-----2-----2-----2-----2-| 2x
D|---0-----0-----0-----0---|
A|-2-----2-----2-----2-----|
E|-------------------------|
       
Outro

e|-0--0-0-0-0-|
B|-3--3-3-3-3-|
G|-0--0-0-0-0-|  x2
D|-2--2-2-2-2-|
A|-3--3-3-3-3-|
E|-0--0-0-0-0-|
   ^
e|-X--X-X-X-X-|
B|-3--3-3-3-3-|
G|-2--2-2-2-2-|  x2
D|-0--0-0-0-0-|
A|-3--3-3-3-3-|
E|-0--0-0-0-0-|
   ^
e|-0--0-0-0-0-|
B|-3--3-3-3-3-|
G|-0--0-0-0-0-|  x2
D|-2--2-2-2-2-|
A|-0--0-0-0-0-|
E|-0--0-0-0-0-|
   ^
e|-3--3-3-3-3-|
B|-3--3-3-3-3-|
G|-0--0-0-0-0-|  x2
D|-2--2-2-2-2-|
A|-3--3-3-3-3-|
E|-X--X-X-X-X-|
   ^
e|-3--3-3-3-3-|
B|-3--3-3-3-3-|
G|-0--0-0-0-0-|  x2
D|-0--0-0-0-0-|
A|-2--2-2-2-2-|
E|-3--3-3-3-3-|
   ^
e|-3--3-3-3-3-|
B|-3--3-3-3-3-|
G|-0--0-0-0-0-|  x2
D|-2--2-2-2-2-|
A|-0--0-0-0-0-|
E|-0--0-0-0-0-|
   ^
e|-3--3-3-3-3-|
B|-3--3-3-3-3-|
G|-0--0-0-0-0-|  x2
D|-2--2-2-2-2-|
A|-2--2-2-2-2-|
E|-0--0-0-0-0-|
   ^
e|-3--3-3-3-3-|
B|-3--3-3-3-3-|
G|-0--0-0-0-0-|  x2
D|-0--0-0-0-0-|
A|-2--2-2-2-2-|
E|-3--3-3-3-3-|
   ^
e|-3--3--3--3-|
B|-3--3--3--0-|
G|-0--0--0--0-|  x2
D|-2--0--0--2-|
A|-0--3--2--2-|
E|-0--0--0--0-|




Order:
     -Verse 1 x2
     -Chorus x2
     -Verse 2 x2
     -Outro

I hope you all enjoy.