Misc. Unsigned Bands - Death By Monkeys - Entrance Text Guitar Tab

Learn the song with the online tablature player
Here is another song from my band,

Intro
lead)

e|----------------------------------------------------|
B|----------------------------------------------------|
G|----------------------------------------------------|
D|-15-15h16p15--15-15h16p15--14-14h15p14--14-14h15p14-|
A|----------------------------------------------------|
E|----------------------------------------------------|

e|-------------------------------|
B|-------------------------------|
G|-------------------------------|
D|-15-15h16p15--15-15h16p15--14~-|
A|-------------------------------|
E|-------------------------------|

Intro
rhythm)

e|---------------------------------------------------------|
B|---------------------------------------------------------|
G|---------------------------------------------------------|
D|---------------------------------------------------------|
A|-3-3-3-3--3-3-3-3--2-2-2-2--2-2-2-2--3-3-3-3--3-3-3-3--2-|
E|-1-1-1-1--1-1-1-1--0-0-0-0--0-0-0-0--1-1-1-1--1-1-1-1--0-|

PM * * * *  * * * *  * * * *  * * * *  * * * *  * * * *  *

Main Riff (lead)

e|------------------------------------------------|
B|------------------------------------------------|
G|------------------------------------------------|
D|------------------------------------------------|
A|------------------------------------------------|
E|-1-1-2-1--1-1-1-1-2-1--1-1-2-1--1-1-1-1-2p1h2p1-|

Verse
lead)

e|------------------------------------------------------------------|
B|------------------------------------------------------------------|
G|------------------------------------------------------------------|
D|------------------------------------------------------------------|
A|-12p11-14p13-10p9-12p11--8p7-10p9-6p5-8p7--12p11-14p13-10p9-12p11-|
E|------------------------------------------------------------------|

e|------------|
B|------------|
G|------------|
D|------------|
A|--8p7-12p11-|
E|------------|

Verse
rhythm)

e|---------------------------------|
B|---------------------------------|
G|---------------------------------|
D|---------------------------------| X3
A|-0-0-0-0-0-0-0-0-2-2-2-2-2-2-2-2-|
E|-0-0-0-0-0-0-0-0-2-2-2-2-2-2-2-2-|

PM * * * * * * * * * * * * * * * *

e|-----------------|
B|-----------------|
G|-----------------|
D|-----------------|
A|-0-0-0-0-2-2-2-2-|
E|-0-0-0-0-2-2-2-2-|

PM * * * * * * * *

Pre Solo
lead)

e|-1-1-2-1--1-1-1-1-2-1------------------------|
B|---------------------------------------------|
G|---------------------------------------------|
D|---------------------------------------------| x2
A|---------------------------------------------|
E|-----------------------1-1-2-1--1-1-1-1-2-1--|

e|-1-1-2-1--1-1-1-1-2-1------------------------|
B|---------------------------------------------|
G|---------------------------------------------|
D|---------------------------------------------|
A|---------------------------------------------|
E|-----------------------1-1-2-1--1-1-1-1-1~---|

Solo
lead)

e|-------|
B|-------|
G|-0h2h3-|
D|-------| x6
A|-------|
E|-------|

e|-----------|
B|-----------|
G|-0h2h3p2h3-|
D|-----------|
A|-----------|
E|-----------|

e|-------|
B|-------|
G|-0h2h3-|
D|-------| x6
A|-------|
E|-------|

e|-------|
B|-------|
G|-0-----|
D|---4~~-|
A|---2~~-|
E|-------|

They are all the parts, now the order:

INTRO
MAIN RIFF x4
VERSE
MAIN RIFF x4
VERSE
MAIN RIFF
PRE SOLO
SOLO
VERSE x2

PRE SOLO
part2 only)

There you go. In the solo, you may want to have rhythm ready to play the B5 at the end,
as it can be a difficult and hectic switch for the novice. Also, in the pre solo, play
the notes on 'e' lightly, then play the notes on'E' hard.

Have Fun

Cheers!