Misc. Unsigned Bands - Death In Writing - Welcome To The Black Parade Text Guitar Tab

Learn the song with the online tablature player
My Chemical Romance: welcome to the black parade
Death In Writing: metal cover

e-------------------------------------|
b-------------------------------------|
g-------------------------------------|
D-12--11--15--9--5--9--3--2--7--------|
A-12--11--15--9--5--9--3--2--7--------|
D-12--11--15--9--5--9--3--2--7--------|

Palm Mute through out song
each bar hold 8 times
for example D---12x8---11x8

e-------------------------------------|
b-------------------------------------|
g-------------------------------------|
D-12--11--15--9--5--9--3--2--7--------|
A-12--11--15--9--5--9--3--2--7--------|
D-12--11--15--9--5--9--3--2--7--------|