Misc. Unsigned Bands - Deepside - Booty Music Text Guitar Tab

Learn song with the online tabulature player
for all that has nothing to do with their guitars..
try this to impress your rn'b buddies
x = dead note

------------------------------------|
------8-----8---4---------------3---|
----------5---6-------7-------3-----|
----6---6-----------8-------5-------|
--------------------------5---------|
-4----------------6-----3-----------|

--------------------------------6---|
------8-----8---4-------------4-----|
----------5---6-------7-----3-------|
----6---6-----------8-----5---------|
------------------------3-----------|
-4----------------6-----------------|

------------------------------------|
------8-----8---4---------------3---|
----------5---6-------7-------3-----|
----6---6-----------8-------5-------|
--------------------------5---------|
-4----------------6-----3-----------|

-----------------------x-3-3--------|
-----------------------x-4-4--------|
-----8-------5-----8-8-x-3-3--------|
---6-------8-----6---6-x-5-5--------|
---------8-----------x-x-3-3--------|
-4-----6-------4-----4-x------------|

its just did this thing by ear so i think its wrong..
anyway a lot of people were impressed try it and post it somewhere..
even if you say its yours there's only 1 tab of this song..
enjoy