Misc. Unsigned Bands - Demons From Heaven - Banshees Text Guitar Tab

Learn the song with the online tablature player
Newer Artist
By:Demons From Heaven.The Demons From Heaven are:Lyrik Friesen/Guitar,Vocals
                                                 Thomas Ricardson/Guitar
                                                 David Park/Drums
                                                 Scott Gallaher/Key Board

h=Hammer

Intro

|-----------------------------------------------------------------------|
|-----------------------------------------------------------------------|
|-----------------------------------------------------------------------|
|-----------------------------------------------------------------------|
|-----------------------------------2---3----2----3----2----3----2----3-|
|17-16-15-15-14-13-13-13-0-13-13-0-0-1-0-1-0-1--0-1--0-1--0-1--0-1-0-1--|  Let Last Note Ring for a while.

Verses 1 2 and 3

|-----------------------------|
|-----------------------------|
|-----------------------------|
|-----------------------------|
|-----------------------------|
|-00-7-00-6-00-5-0-4-0-3-0-2--|

Repeat 10 Times

Chorus

|-----------------------------------------------|
|-----------------------------------------------|
|-----------------------------------------------|
|-----------------------------------------------|
|-----2----3-----2---3-----2-----3----2------3--|
|-0-1--0-1---0-1--0-1--0-1---0-1--0-1---0-1-----|

Again Let the last note ring for a while.

Verse 2

Chorus

Verse 3

Chorus

End

|--------------------------------------------------------------------------|
|--------------------------------------------------------------------------|
|--------------------------------------------------------------------------|
|--------------------------------------------------------------------------|
|-----2-----3-----5-----7-----9--12-12-11-11-10-10-9-9-8-8-7-7-6-6-5-5-4-4-|
|-0-1---0-1---0-1---0-1---0-1----12-12-11-11-10-10-9-9-8-8-7-7-6-6-5-5-4-4-|

|---------------------------------------------------|
|---------------------------------------------------|
|---------------------------------------------------|
|--------------h-h----------------------------------|
|-3-3-2-2-1-1--2-2----------------------------------|
|-3-3-2-2-1-1--0-0----------------------------------|

The End!!!