Misc. Unsigned Bands - Devarium - As Time Goes By Text Guitar Tab

Learn song with the online tabulature player
----------------------------------------------------------------------------
			     As time goes by - Devarium
----------------------------------------------------------------------------
Tabbed by:Billy
Email:bnewcombe619@aol.com

Tuning:Standard

Intro								reapeat 4x
e|-------------------------------------------------------------------------|
B|---------0h1---------0h1---------3-------------0h1-----------------------|
G|-------2-----2-----0-----0---------0---------2-----2---------------------|
D|-----2-----------2-------------0-----0-----2----------------------------| 
A|---0-----------3-------------2-----------0-------------------------------|
E|---------------------------3---------------------------------------------|

verse								reapeat 4x	
e|-------------------------------------------------------------------------|
B|--1-----1-----1----1-----1-----1-----------3-----3----1-----1------------|
G|----------------2----------------0-----------0-----0---------------------|
D|-----------------------------------------0-----0-------------------------|
A|--0-0-0-0-0-0------3-3-3-3-3-3---------2--------------0-0-0-0-0-0--------|
E|-------------------------------------3-----------------------------------|
 
Breakdown							reapeat 4x
e|-------------------------------------------------------------------------|
B|-------------------------------------------------------------------------|
G|--4-4-4-x-x-7-7-7-x-x----------------------------------------------------|
D|--4-4-4-x-x-7-7-7-x-x-7-7-7-x-x-9-9-9-x-x--------------------------------|
A|--2-2-2-x-x-5-5-5-x-x-7-7-7-x-x-9-9-9-x-x--------------------------------|
E|----------------------5-5-5-x-x-7-7-7-x-x--------------------------------|

Solo
e|-------------------------------------------------------------------------|
B|---15b--15t--13t--12t--10t--15t--13t--12t--10t---------------------------|
G|------------------------------------------------12t--11t--9t--7t---------|
D|-------------------------------------------------------------------------|
A|-------------------------------------------------------------------------|
E|-------------------------------------------------------------------------|

e|-----------------------------12b----12--15--17b--12--15--12--12--15--17b-|
B|-------------------------------------------------------------------------|
G|---7p5-----9p7-----11p9--------------------------------------------------|
D|-------7p5-----9p7------11p9---------------------------------------------|
A|-------------------------------------------------------------------------|
E|-------------------------------------------------------------------------|

e|---------------------------------------21b----15p13----15p13----15p13----|
B|---15p13-------17p15-------19p17--------------------13-------13-------13-|
G|---------15p13-------17p15-------19p17-----------------------------------|
D|-------------------------------------------------------------------------|
A|-------------------------------------------------------------------------|
E|-------------------------------------------------------------------------|

e|-15p13----16p14----16p14----16p14----16p14----17p15----17p15----17p15----|
B|-------13-------14-------14-------14-------14-------15-------15-------15-|
G|-------------------------------------------------------------------------|
D|-------------------------------------------------------------------------|
A|-------------------------------------------------------------------------|
E|-------------------------------------------------------------------------|

e|--17p15----18p16----18p16----18p16----18p16----18p16----18p16----18p16---|
B|--------15-------16-------16-------16-------16-------16-------16-------16|
G|-------------------------------------------------------------------------|
D|-------------------------------------------------------------------------|
A|-------------------------------------------------------------------------|
E|-------------------------------------------------------------------------|

e|--18p16----19p17----19p17----19p17----19p17----19p17----21p19----21p19---|
B|--------16-------17-------17-------17-------17-------17-------19-------19|
G|-------------------------------------------------------------------------|
D|-------------------------------------------------------------------------|
A|-------------------------------------------------------------------------|
E|-------------------------------------------------------------------------|

e|--21p19----21p19-----22b-22b-22b-22b-------------------------------------|
B|--------19-------19------------------------------------------------------|
G|-------------------------------------------------------------------------|
D|-------------------------------------------------------------------------|
A|-------------------------------------------------------------------------|
E|-------------------------------------------------------------------------|

Riff								reapeat 4x
e|-------------------------------------------------------------------------|
B|--0-0-0-x-x-1-1-1-x-x-3-3-3-x-x-0-0-0-x-x--------------------------------|
G|--2-2-2-x-x-0-1-1-x-x-0-0-0-x-x-2-2-2-x-x--------------------------------|
D|--2-2-2-x-x-2-0-0-x-x-0-0-0-x-x-2-2-2-x-x--------------------------------|
A|--1-1-1-x-x-3-3-3-x-x-2-2-2-x-x-1-1-1-x-x--------------------------------|
E|----------------------3-3-3-x-x------------------------------------------|

Outro							reapeat 3x then fade
e|-------------------------------------------------------------------------|
B|--------0h1---------0h1---------3-----3---------0h1----------------------|
G|------2-----2-----0-----0---------0-----0-----2-----2--------------------|
D|----2-----------2-------------0-----0-------2----------------------------|
A|--0-----------3-------------2-------------0------------------------------|
E|--------------------------3----------------------------------------------|

| /  slide up
| \  slide down
| h  hammer-on
| p  pull-off
| ~  vibrato
| +  harmonic
| x  Mute note
| t  Tremelo picking
============================================================================