Misc. Unsigned Bands - Devils Warfare - Life Like This Text Guitar Tab

Learn the song with the online tablature player
This is just an insermental song there is no vocals

/ =silde up 1-13
\ =slide down  13-1
pm|---| = palm mute

|---------------------------------------------------------|
|---------------------------------------------------------|
|---------------------------------------------------------|
|-3--3--3--6--6--6--9--9--9-----3--3--3--6--6--6--9--9--9-|     x5
|-2--2--2--5--5--5--8--8--8-----2--2--2--5--5--5--8--8--8-|
|-1--1--1--4--4--4--7--7--7-----1--1--1--4--4--4--7--7--7-|

                                            pm|------------------|
|----------------------------------------------------------------|
|----------------------------------------------------------------|
|----------------------------------------------------------------|
|----------------0-3-5---0-3-6-5---0-3-5-3-0---------------------|      x2
|----------------------------------------------1-1-1-2-1---------|
|-5/12---3/13----------------------------------------------------|

pm|----------------------------------------------------------------|
  |----------------------------------------------------------------|
  |----------------------------------------------------------------|
  |----------------------------------------------------------------|      x4
  |----------------------------------------------------------------|
  |------------------------------------------------1-1-2-2---------|
  |-1-1-1-2-2-2-1-1-1-4-5-2--6-0-2-2-2-4-3-2-1-0-1-2-3-4-5---------|