Misc. Unsigned Bands - Devon Camizzi - Into Your Eyes Text Guitar Tab

Learn the song with the online tablature player
this is a little song i created myself. i would put it in a genre but there really
isnt one to put it in. if anything its like a deathcore/alternative.
rate this song and tell me what ya think?

 /=slide
 ^=bend/vib string

(---------------------------------------------------------------------------)
(---------------------------------------------------------------------------)
(---------------------------------------------------------------------------)
(----------9-------------------7-------------------9------------------7-10-9)
(--7--9-10----10-9--7--7--9-10---10-9--7---7--9-10---10-9--7--7--9-10-------)
(---------------------------------------------------------------------------)

now it starts to get fast.

(---------------------------------------------------------------------------)
(---------------------------------------------------------------------------)
(---------------------------------------------------------------------------)
(------------------9----------------7--------------9------------------7-10-9)
(-----------7-79/10-10/9-7--7-7-9/10-10/9--7-7-9/10-10/9--7--7-7-9/10-------)
(-0-0-0-0--0----------------0-0------------0-0---------------0-0------------)

short solo

(---------------------------------------------------------------------------)
(---------------------------------------------------------------------------)
(---------------------------------------------------------------------------)
(--12-10-9-7-10-9-------------7-9-10-9--------------------------------------)
(-----------------10-9-7-9-10-----------------------------------------------)
(---------------------------------------------------------------------------)

chorus 1 and end of intro

(---------------------------------------------------------------------------)
(---------------------------------------------------------------------------)
(----------9--------------7-----------------10-----9----7-------------------)
(---10-9-10-12-10-9-7-9-10-10/9----7-9-10-12--12-10-10-9-10-9-7-------------)
(-12---------------0------------00------------------------------------------)
(---------------------------------------------------------------------------)

you can add in bends where you want to make it sound custom but all in all thats
what happens when herb and guitar mix. lol