Misc. Unsigned Bands - Dewey Cox - Walk Hard Text Guitar Tab

Learn song with the online tabulature player
This is my first tab,
so dont judge.
cmnt plz! :)


-------------3------------------------------------------2-----------|
-------------3------------------------------------------3-----------|
-------------3----------------44--------44--------------2-x5--------|
-------------5-x7-------------44---44---44----------0---0-----------|
-----4-5-4---5------4/5--4--2-22---44-2-22---4/5--7-----------------|
-5/7-------3-3-------------------2-22-------------------------------|

----------------------------|
----------------------------|
-----------44--------44-----|
-----------44---44---44-----|
-4/5--4--2-22---44-2-22-----|
--------------2-22----------|