Misc. Unsigned Bands - Digitaliiz Ethan Macdonald - Education Text Guitar Tab

Learn song with the online tabulature player
this is Digitaliiz's new song Education.
It says by Ethan MacDonald, because he wrote 
the lyrics by himself without me helping him. Usually
I do half and he does half and I help him in the 
tricky spots. 

Here's Education.

Verse
|-------------------------------|
|-1-1-1-----------1-1-1---------|
|-------4-4-4-4-5-------4-4-4---|
|-------------------------------|
|-3-3-3-2-2-2-2-3-3-3-3-2-2-2---| repeat as nessacery
|-------------------------------|
These times are really great
and just good...

Chours
|-------------------------------|
|-9-9-7-7-7-5-5-5-5-------------|
|-9-9-7-7-7-5-5-5-5-------------|
|-9-9-7-7-7-5-5-5-5-------------|
|-7-7-5-5-5-3-3-3-3-------------|
|-------------------------------|
Oh, yeah, oh yeah. A pain in the
neck, is education. Just to teach
the population.

|-------------------------------|
|-9-9-7-7-7-5-5-5-5-------------|
|-9-9-7-7-7-5-5-5-5-------------|
|-9-9-7-7-7-5-5-5-5-------------|
|-7-7-5-5-5-3-3-3-3-------------|
|-------------------------------|

|-------------------------------|
|-9-9-7-7-7-5---5---5---5-------|
|-9-9-7-7-7-5---5---5---5-------|
|-9-9-7-7-7-5---5---5---5-------|
|-7-7-5-5-5-3-3-3-3-3-3-3-3-----|
|-------------------------------|

|-------------------------------|
|-9-9-7-7-7-5-5-5-5-------------|
|-9-9-7-7-7-5-5-5-5-------------|
|-9-9-7-7-7-5-5-5-5-------------|
|-7-7-5-5-5-3-3-3-3-------------|
|-------------------------------|

Solo (distortion here)
|-------------------------------------|
|--------------------------7b-7b-7b---|
|-7b-999999997776666777997------------|
|-------------------------------------|
|-------------------------------------|
|-------------------------------------|
                        tapping very fast
|-------------------------------------|
|--------------------------1012101210-|
|-7b-999999997776666777997------------|
|-------------------------------------|
|-------------------------------------|
|-------------------------------------|

|-------------------------------------|
|-18~---------------------------------|
|-------------------------------------|
|-------------------------------------|
|-------------------------------------|
|-------------------------------------|


|-------------------------------|
|-9-9-7-7-7-5-5-5-5-------------|
|-9-9-7-7-7-5-5-5-5-------------|
|-9-9-7-7-7-5-5-5-5-------------|
|-7-7-5-5-5-3-3-3-3-------------|
|-------------------------------|

|--------------------------------|
|---8----------------------------|
|---7----------------------------|
|---6----------------------------|
|---7----------------------------|
|-0-0----------------------------|