Misc. Unsigned Bands - Dignen - 3 On Cambridge Text Guitar Tab

Learn the song with the online tablature player
                             Dignen-#3 on Cambridge

| /   slide up
| \   slide down
| h   hammer-on
| p   pull-off
| ~   vibrato
| +   harmonic
| x   Mute note
| b   Bend
| pb  Pre-bend
| br  Bend release
| pbr Pre-bend release
| brb Bend release bend

guitar 1

e|-----------------------------------------|  this is
B|-----------------------------------------|  all i got
G|7--7--0--0--0--0--7--7--7--0--0--0--0--7-|
D|-88-88-88-88-88-77-88-88-88-88-88-88-77--|
A|-----------------------------------------|
E|-----------------------------------------|

guitar 2

e|-----------------------------------------------------------------------------|
B|-----------------------------------------------------------------------------|
G|---------------------------------------7--6-7\-3--2-3-----2333/555/777107107-|
D|------------------------------------------------------0----------------------|
A|-----------------------------------------------------------------------------|
E|-----------------------------------------------------------------------------|

e|-------------------------------|
B|-------------------------------| i couldnt make out any more
G|--6-7\-3--2-3-----2333/555/777-|
D|--------------0----------------|
A|-------------------------------|
E|-------------------------------|