Misc. Unsigned Bands - Dilwale Dulhania Le Jayenge - Tujhe Dekha To Text Guitar Tab

Learn song with the online tabulature player
TUJHE DEKHA TO
-DILWALE DULHANIA LE JAYENGE

A hopefully similar tab for a great song from an even greater movie!

e000----7-5-7---3--5---8-7--------|
b---------------------------------|
g---------------------------------|
d---------------------------------|
a---------------------------------|
E---------------------------------|


e000-----7-5-7--3-5-------3--2----|
b---------------------------------|
g---------------------------------|
d---------------------------------|
a---------------------------------|
E---------------------------------|

e000----7-5-7---3--5----10-7------|
b---------------------------------|
g---------------------------------|
d---------------------------------|
a---------------------------------|
E---------------------------------|

e000-----7-5-7--3-5-------3--2----|
b---------------------------------|
g---------------------------------|
d---------------------------------|
a---------------------------------|
E---------------------------------|

E222-----0-2-0-0-2------3--2------|
b---------------------------------|
g---------------------------------|
d---------------------------------|
a---------------------------------|
E---------------------------------|

E222-----0-2-0-0-2------0--0------|
b---------------------------------|
g---------------------------------|
d---------------------------------|
a---------------------------------|
E---------------------------------|