Misc. Unsigned Bands - Dinosaur Dance Party - The Dinosaur Song Text Guitar Tab

Learn the song with the online tablature player
               The Dinosaur Song - Dinosaur Dance Party

e|--------------------------------------------------------------------------|
B|--------------------------------------------------------------------------|
G|--------------------------------------------------------------------------|
D|-5-4-3-2---3-2-3-2-1-0-3-2-3-2-4-5-3-2-3-2-2/-3-2-3-2-1-0-3-2-3-4-5-6-----|
A|-5-4-3-2---3-2-3-2-1-0-3-2-3-2-4-5-3-2-3-2-2/-3-2-3-2-1-0-3-2-3-4-5-6-----|
E|-3-2-1-0------------------------------------------------------------------|

e|--------------------------------------------------------------------------|
B|--------------------------------------------------------------------------|
G|--------------------------------------------------------------------------|
D|-3-2-3-6-5-4-3-2-3-2-1-0-3-2-3-2-4-5-3-2-3-2-2/-3-2-3-2-1-0-3-2-3-4-5-6---|
A|-3-2-3-6-5-4-3-2-3-2-1-0-3-2-3-2-4-5-3-2-3-2-2/-3-2-3-2-1-0-3-2-3-4-5-6---|
E|--------------------------------------------------------------------------|

e|--------------------------------------------------------------------------|
B|--------------------------------------------------------------------------|
G|--------------------------------------------------------------------------|
D|-3-2-3-6-5-4-3-3-3-2-3-0--------------------------------------------------|
A|-3-2-3-6-5-4-3-3-3-2-3-0--------------------------------------------------|
E|--------------------------------------------------------------------------|

                                                                            | / slide up
| . mute note