Misc. Unsigned Bands - Dirty Black Halo - Harlot Text Guitar Tab

Learn the song with the online tablature player
Dirty Black Halo
Harlot

Intro guitar & Verse guitar (repeat):
   F#  A  E   F#  A  B5

e|---------------------------------|
B|---------------------------------|
G|-----2------------2--4-----------|
D|--4--2--2----4----2--4-----------|
A|--4--0--2----4----0--2-----------|
E|--2-----0----2-------------------|

Chorus guitar
repeat twice):
    D    Em    F#
e|------------------------------|
B|--7----9-----11---------------|
G|--7----9-----11---------------|
D|--5----7-----9----------------|
A|------------------------------|
E|------------------------------|

Once again I have yet to figure out the guitar solo.
There is also a wah wah pedal part that I am having trouble with.
Their guitar player, does some interesting solo stuff, at to figure out and type up in
 Listen to the lyrics on this song, not sung too emotionally but the story is.  This is a
band, I found them on MySpace, check them out below.

(song structure)
Intro
Verse
Chorus
Intro
Verse
Chorus

Solo
chorus chords)
Intro
Verse
Chorus
Chorus

Outro
same as Intro)