Misc. Unsigned Bands - District 24 - Fly Text Guitar Tab

Learn the song with the online tablature player
DISTRICT 24  D24

Artist: District 24
Album: N/A (single)
Song: Fly

INTRO
(x2) Acoustic Guitar 1

------------------------------------------------------------|
------------------------------------------------------------|
------------------------------------------------------------|
--8-7-6---6-5-4--4-3-2----2-1-0h-1h-2-----------------------|
9-------7-------5-------3-----------------------------------|
------------------------------------------------------------|

Eletric guitar 1 (heavy distortion, 2X)
---------------------------------------------------------------------------|
---------------------------------------------------------------------------|
----8--7---6--------6---5---4-------4---3---2------------------------------|
9---8--7---6---7----6---5---4---5---4---3---2---3--------------------------|
9--------------7----------------5---------------3--------------------------|
---------------------------------------------------------------------------|

---------------------------------------------------------------|
---------------------------------------------------------------|
2---1----------------------------------------------------------|
2---1---2------------------------------------------------------|
--------2------------------------------------------------------|
--------0-------X2---------------------------------------------|

Bridge

------------------------------------------------------------|
------------------------------------------------------------|
------------------------------------------------------------|
2-2-2-2-2-2-2-2-2-2-2-2-------------------------------------|
2-2-2-2-2-2-2-2-2-2-2-2-------------------------------------|
0-0-0-0-0-0-0-0-0-0-0-0---x4--------------------------------|

------------------------------------------------------------------|
------------------------------------------------------------------|
-------------7----------------------------------------------------|
-------------7----------------------------------------------------|
------0h1h3--5----------------------------------------------------|
0h1h3-------------------------------------------------------------|

VERSE

------------------------------------------------------------------------|
------------------------------------------------------------------------|
9-----11------9------5/--7----------------------------------------------|
9------9------9------5/--7----------------------------------------------|
7-7-7--9-9-9--7-7-7--3/--5----------------------------------------------|
-------------------------------X2---------------------------------------|

-------------------------------------------------------------------|
-------------------------------------------------------------------|
-------------7-----------------------------------------------------|
-------------7-----------------------------------------------------|
------0h1h3--5-----------------------------------------------------|
0h1h3--------------------------------------------------------------|

chorus
------------------------------------------------------------------------|
------------------------------------------------------------------------|
9-9-9--5-5-5------------------------------------------------------------|
9-9-9--5-5-5--5-5-5----9--9-9-------------------------------------------|
7-7-7--3-3-3--5-5-5----9--9-9-------------------------------------------|
---------------3-3-3---7--7-7-------------------------------------------|

After chorus play INTRO, then go straight to VERSE then straight onto CHORUS.

Thanks.

DISTRICT 24 11-2-11 5:59 PM