Misc. Unsigned Bands - District 24 - Waiting Text Guitar Tab

Learn the song with the online tablature player
DISTRICT 24 - WAITING

Intro
--------------------------------------------|
--------------------------------------------|
----4-------4------4-------4----------------|
--4---4---4---4---4-4----4---4--------------|
2-------2-----------------------------------|
----------------0------2--------------------| x 4

Verse 1
--------------------------------------------|
--------------------------------------------|
----44--44-----77--99-----------------------|
----44--44-----77--99-----------------------|
----22--22-2/4-55--77-----------------------|
/12-----------------------------------------| 4 x Clean tone, 4x Metal

--------------------------------------------|
--------------------------------------------|
444444---777--999---------------------------|
444444---777--999---------------------------|
222222---555--777---------------------------|
--------------------------------------------| 4x Metal

Verse 2
--------------------------------------------|
--------------------------------------------|
----44--44--12-12--11-11--------------------|
----44--44--12-12--11-11--------------------|
----22--22--10-10---9--9--------------------|
/12-----------------------------------------| 4x Crunch or metal

--------------------------------------------|
--------------------------------------------|
444444/--12-12-12-11-11-11------------------|
444444/--12-12-12-11-11-11------------------|
222222/--10-10-10--9--9--9------------------|
--------------------------------------------| 4x Crunch

END
--------------------------------------------|
--------------------------------------------|
---4*---------------------------------------|
---4*---------------------------------------|
---2*---------------------------------------|
--------------------------------------------|

Thanks for looking this up!