Misc. Unsigned Bands - District 24 - War Text Guitar Tab

Learn song with the online tabulature player
DISTRICT 24 - WAR

SONG NAME: WAR
ARTIST: DISTRICT 24
PART: WHOLE SONG

CHORDS USED:



Bm  x2443x  A x0222x D5 xx023x  G5 30003x


[!] play this note(s) harder
[.] play this note(s) softer
[&] continue on
Note: The intro IS played throughout the whole song. Follow lead.
Note: This song sounds amazing in Half-step, but it can be played in another tuning. 
(this song can be a little tricky if you are not familiar with arpeggios.)


INTRO: (FINGERPICKING)
[.]|---------------------------------------------------------|
-------------------------------------------------------------|
----3-------3-------3-------3--------3-------3---------------|
--4---4---4---4---4---4---4---4----4---4---4---4-------------|
--------4---------------4------------------------------------|
2---------------0--------------------------------------------|
---------------------------------0-------2-------------------|


VERSE: (4x)

---------------------------------------------------------------------|
---3-----3---------2-----2--------3------3---------3------3----------|
-----4-----4---------2-----2--------2------2---------0------0--------|
-------4-----4---------2-----2--0-----0------0---------0------0------|
2---------------0----------------------------------------------------|
------------------------------------------------3--------------------|

BRIDGE:
---3-----3--------3-----3--------3-----3--------3------3---------------|
-----3-----3--------3-----3--------3-----3--------3------3-------------|
-------0-----0--------0-----0--------0-----0--------2------2-----------|
-----------------------------------------------0-----------------------|
-------------------------------3---------------------------------------|
2---------------3------------------------------------------------------|


CHORUS (CHORDS)

Bm A D5 G5 Play 4 times.

LYRICS:

Verse 1:

"War
Is what we're fighting
It seems right in our hearts
There are shells flying
People dying on the battlefield
We have to do this
Because if we don't
We will all be waiting for the end"

"War
War is nothing but blood in the sand
It's full of violProxy-Connection: keep-alive
Cache-Control: max-age=0

ce
And adrenline
To see your best friend
Get shot dead
Is the worst thing
But this seems right in your heart"

Bridge:

"Once you go in
There is no way out
But this is the way
I will defend!"

Chorus:

"War, war
Blood in the sand
Hot, empty shells
Left in the dust
You think this is it
You think it's the end
But this seems right in your heart."

Verse 2:

It seems like you are stuck here forever
like being cut by a knife
The would heals but the scar
The scar stays with you till your six feet under."

"Comrade, we can do this
This may be our end
And if it is
We will not die in vain
We will fight to the grave
(we will die an honorable death)
War never changes
The simple plan is to kill
But as we go on still
More humans, more people
Are being killed
And as we try
Try our hardest
We will fail

(REPEAT CHORUS)

ENDING
   A                    END ON A
------------------------------------------|
--2-----2--------2-----2------2-----------|
----2-----2--------2-----2----2-----------|
------2-----2--------0-----0--2-----------|
0--------------2--------------------------|
------------------------------------------|


RHYTHM GUITAR:

INTRO:

-----------------------------------------------|
-----------------------------------------------|
-----------------------------------------------|
-----------------------------------------------|
2------0---------------------------------------|
-------------0----2----------------------------|


VERSE:

-------------------------------------------------|
-------------------------------------------------|
-------------------------------------------------|
------------0------------------------------------|
2-----0------------------------------------------|
----------------3--------------------------------|

BRIDGE:

---------------------------------------------------|
---------------------------------------------------|
---------------------------------------------------|
----------------0----------------------------------|
-----------3---------------------------------------|
2-----3--------------------------------------------|


CHORUS:

--------------------------------------------------|
--------------------------------------------------|
--------------------------------------------------|
-----------0--------------------------------------|
3-----0-------------------------------------------|
---------------3----------------------------------|


And that't it..