Misc. Unsigned Bands - Dj Khaled - Im From Dade County Text Guitar Tab

Learn the song with the online tablature player
                        I'm from Dade County - DJ Khaled

  Intro
e|-------------|
A|-------------|
D|-------------|
G|-------3--5--|
B|-5--6--1--3--|
E|-3--4--------|

verse
   <  <  <  <
e|-------------|
A|-------------|
D|-------------|
G|-------------|
B|-------1--3--|
E|-3--4--------|
these are volume knob swells

chorus

e|---------|
A|---------|
B|-----3-5-|
G|-5-6-3-5-|
D|-5-6-1-3-|
E|-3-4-----|