Misc. Unsigned Bands - Dp - 1408 Text Guitar Tab

Learn the song with the online tablature player
First Bit
E--12-----------------10br-----12br-10---|
B------12br-10---10-12----12-10-------12-|
G----11-------11-------------------------|
D----------------------------------------|
A----------------------------------------|
E----------------------------------------|

Second Bit
E------------------------------------------------|
B--12-15-----------------------------------------|
G-------17-16---14-17-16-------------------------|
D-----------------------17---15-17-15-17-15-17br-|
A------------------------------------------------|
E------------------------------------------------|

Last bit
E---------------------------------------------|
B---------------------------------------------|
G---------------------------------------------|
D--15-17--18-15-17--15------------------------|
A-------15--------18--17-18-15-17-13-15-12-13-|
E---------------------------------------------|

All the bend releases are 3/4 ones.